Home » T » The Album Leaf »

The Album Leaf - Eastern Glow Bass

Artists:  A B C D E F G H I J K L M N O P Q R S T U V W X Y Z # 

Eastern Glow Bass

(ver. 1) Click to play this song!
The Album Leaf

-------------------------------------------------------------------------------
-------------------------------------------------------------------------------

Tuning:GDAE

     VERSE
G|--11--14-------|  
D|-9-------------|X4
A|---------------|
E|---------------|

G|--9-14----------|
D|-7--------------|X4
A|----------------|
E|----------------|
    ALL THAT X9
  

   BRIDGE TYPE THING
G|------------------------------------------------------|
D|-5--wait-a-while---2---wait-a-while-------------------| ALL THAT X2
A|------------------------------------------------------|
E|------------------------------------------------------|




Then Back To The Verse And Play It The Rest Of The Song.
Great Song!

===============================================================================
            
Submit corrections

↑ Back to top | Tablatures and chords for acoustic guitar and electric guitar, ukulele, drums are parodies/interpretations of the original songs. You may use it for private study, scholarship, research or language learning purposes only