» » »

Tenacious D - Low Hangin Fruit Tabs

Artists:  A B C D E F G H I J K L M N O P Q R S T U V W X Y Z # 

Low Hangin Fruit Tabs

(ver. 2) Click to play this song!
Tenacious D
 Rating:
4/5 (4 votes)

 Low Hangin Fruit lessons Tabs too difficult? Try these video lessons and learn fast
 
                e|-2-2---2-2-2---2-2-2---2-2-2---------|
B|-2-2---2-2-2---2-2-2---2-2-2-2-------|
G|-3-3---3-3-3---3-3-3---3-3-3-2-------|  x5
D|-4-4---4-4-4---4-4-4---4-4-4-2-------|
A|-4-4---4-4-4---4-4-4---4-4-4-0-------|
E|-2-2---0-2-2---0-2-2---0-2-2---------|

                                              only playthis the 4th time
                                                     v 
e|-2-2---2-2-2---2-2-2---2-2-2--------00000000--------------|
B|-2-2---2-2-2---2-2-2---2-2-2--------22222222--------------|
G|-3-3---3-3-3---3-3-3---3-3-3--------22222222--------------|    x4
D|-4-4---4-4-4---4-4-4---4-4-4-444444422222222-----66666666-|
A|-4-4---4-4-4---4-4-4---4-4-4-222222200000000-----44444444-|
E|-2-2---0-2-2---0-2-2---0-2-2-0000000----------------------|
            
Submit corrections


        Low Hangin Fruit lessons Hard to play? Try these video lessons and learn fast Low Hangin Fruit lessons
        
↑ Back to top | Tablatures and chords for acoustic guitar and electric guitar, ukulele, drums are parodies/interpretations of the original songs. You may use it for private study, scholarship, research or language learning purposes only