» » »

Tenacious D - Low Hangin Fruit Tabs

Artists:  A B C D E F G H I J K L M N O P Q R S T U V W X Y Z # 

Low Hangin Fruit Tabs

(ver. 1) Click to play this song!
Tenacious D
 Rating:
4/5 (4 votes)

 Low Hangin Fruit lessons Tabs too difficult? Try these video lessons and learn fast
 
                Low hanging fruit by Tenacious D

I think it is a 99% accurate…


||-------------------|------------------||
||-------------------|------------------||
||-------------------|------------------||
||-4-4--4-4-4--4-4-4-|-4-4-4---7--------||
||-4-4--4-4-4--4-4-4-|-4-4-4---7--------||
||-2-2--2-2-2--2-2-2-|-2-2-2---5--------||    x5

Well me and Kage are hungry
We’re hungry for some fruit
We wander through the garden
It would be a hoot

||-------------------||
||-------------------||
||-4-4-4-4-----------||
||-4-4-4-4--7-7-7-7--||
||-2-2-2-2--7-7-7-7--||
||----------5-5-5-5--||

To eat some low hanging fruit

||-------------------|------------------||
||-------------------|------------------||
||-------------------|------------------||
||-4-4--4-4-4--4-4-4-|-4-4-4---7--------||
||-4-4--4-4-4--4-4-4-|-4-4-4---7--------||
||-2-2--2-2-2--2-2-2-|-2-2-2---5--------||

||-------------------||
||-------------------||
||-4-4-4-4-----------||
||-4-4-4-4--7-7-7-7--||
||-2-2-2-2--7-7-7-7--||
||----------5-5-5-5--||

We are on a freaky persuit

||-------------------|------------------||
||-------------------|------------------||
||-------------------|------------------||
||-4-4--4-4-4--4-4-4-|-4-4-4---7--------||
||-4-4--4-4-4--4-4-4-|-4-4-4---7--------||
||-2-2--2-2-2--2-2-2-|-2-2-2---5--------||

||-------------------||
||-------------------||
||-4-4-4-4-----------||
||-4-4-4-4--7-7-7-7--||
||-2-2-2-2--7-7-7-7--||
||----------5-5-5-5--||

Don t want no high class model in designer f**king bathing suit
||-------------------|------------------||
||-------------------|------------------||
||-------------------|------------------||
||-4-4--4-4-4--4-4-4-|-4-4-4---7--------||
||-4-4--4-4-4--4-4-4-|-4-4-4---7--------||
||-2-2--2-2-2--2-2-2-|-2-2-2---5--------||

||-------------------||
||-------------------||
||-4-4-4-4-----------||
||-4-4-4-4--7-7-7-7--||
||-2-2-2-2--7-7-7-7--||
||----------5-5-5-5--||

We want the low hanging –

||------------------------||
||------------------------||
||-6--6--6--6--6--6--6--6-||
||-6--6--6--6--6--6--6--6-||
||-4--4--4--4--4--4--4--4-||
||------------------------||

Fruit

||-------------------|------------------||
||-------------------|------------------||
||-------------------|------------------||
||-4-4--4-4-4--4-4-4-|-4-4-4---7--------||
||-4-4--4-4-4--4-4-4-|-4-4-4---7--------||
||-2-2--2-2-2--2-2-2-|-2-2-2---5--------||    x6

Me and Kage are horny
Looking for a snack
Looking for a plump one
With a tasty crack
||-------------------||
||-------------------||
||-4-4-4-4-----------||
||-4-4-4-4--7-7-7-7--||
||-2-2-2-2--7-7-7-7--||
||----------5-5-5-5--||

We want some low hanging fruit

||-------------------|------------------||
||-------------------|------------------||
||-------------------|------------------||
||-4-4--4-4-4--4-4-4-|-4-4-4---7--------||
||-4-4--4-4-4--4-4-4-|-4-4-4---7--------||
||-2-2--2-2-2--2-2-2-|-2-2-2---5--------||

||-------------------||
||-------------------||
||-4-4-4-4-----------||
||-4-4-4-4--7-7-7-7--||
||-2-2-2-2--7-7-7-7--||
||----------5-5-5-5--||

She wears a bee keeper suit

||-------------------|------------------||
||-------------------|------------------||
||-------------------|------------------||
||-4-4--4-4-4--4-4-4-|-4-4-4---7--------||
||-4-4--4-4-4--4-4-4-|-4-4-4---7--------||
||-2-2--2-2-2--2-2-2-|-2-2-2---5--------||

||-------------------||
||-------------------||
||-4-4-4-4-----------||
||-4-4-4-4--7-7-7-7--||
||-2-2-2-2--7-7-7-7--||
||----------5-5-5-5--||

She got the sh*t kickin boots

||-------------------|------------------||
||-------------------|------------------||
||-------------------|------------------||
||-4-4--4-4-4--4-4-4-|-4-4-4---7--------||
||-4-4--4-4-4--4-4-4-|-4-4-4---7--------||
||-2-2--2-2-2--2-2-2-|-2-2-2---5--------||

||-------------------||
||-------------------||
||-4-4-4-4-----------||
||-4-4-4-4--7-7-7-7--||
||-2-2-2-2--7-7-7-7--||
||----------5-5-5-5--||

We need the low hanging-

||-------------------||
||-------------------||
||--6-6-6-6-6-6-6-6--||
||--6-6-6-6-6-6-6-6--||
||--4-4-4-4-4-4-4-4--||
||-------------------||

Fruit

||-------------------|-------------------|-------------------|-------------------||
||-------------------|-------------------|-------------------|-------------------||
||--4-4-4-4-4-4-4-4--|-------------------|--4-4-4-4-4-4-4-4--|--7-7-7-7-7-7-7-7--||
||--4-4-4-4-4-4-4-4--|--4-4-4-4-4-4-4-4--|--4-4-4-4-4-4-4-4--|--7-7-7-7-7-7-7-7--||
||--2-2-2-2-2-2-2-2--|--4-4-4-4-4-4-4-4--|--2-2-2-2-2-2-2-2--|--5-5-5-5-5-5-5-5--||
||-------------------|--2-2-2-2-2-2-2-2--|-------------------|-------------------||

She got the flip flops on with hot red potatoes
And a butt floss thong with fried green tomatoes
And she loves the song we sing for the ladies c mon! Oh my God!

||-------------------|------------------||
||-------------------|------------------||
||-------------------|------------------||
||-4-4--4-4-4--4-4-4-|-4-4-4---7--------||
||-4-4--4-4-4--4-4-4-|-4-4-4---7--------||
||-2-2--2-2-2--2-2-2-|-2-2-2---5--------||    x4

{JB scat section}

||-------------------||
||-------------------||
||-4-4-4-4-----------||
||-4-4-4-4--7-7-7-7--||
||-2-2-2-2--7-7-7-7--||
||----------5-5-5-5--||

low hanging fruit

||-------------------|------------------||
||-------------------|------------------||
||-------------------|------------------||
||-4-4--4-4-4--4-4-4-|-4-4-4---7--------||
||-4-4--4-4-4--4-4-4-|-4-4-4---7--------||
||-2-2--2-2-2--2-2-2-|-2-2-2---5--------||

||-------------------||
||-------------------||
||-4-4-4-4-----------||
||-4-4-4-4--7-7-7-7--||
||-2-2-2-2--7-7-7-7--||
||----------5-5-5-5--||

She wears a pink parachute

||-------------------|------------------||
||-------------------|------------------||
||-------------------|------------------||
||-4-4--4-4-4--4-4-4-|-4-4-4---7--------||
||-4-4--4-4-4--4-4-4-|-4-4-4---7--------||
||-2-2--2-2-2--2-2-2-|-2-2-2---5--------||

||-------------------||
||-------------------||
||-4-4-4-4-----------||
||-4-4-4-4--7-7-7-7--||
||-2-2-2-2--7-7-7-7--||
||----------5-5-5-5--||

She got the fly tattoo and the honky tonkin daisy dukes

||-------------------|------------------||
||-------------------|------------------||
||-------------------|------------------||
||-4-4--4-4-4--4-4-4-|-4-4-4---7--------||
||-4-4--4-4-4--4-4-4-|-4-4-4---7--------||
||-2-2--2-2-2--2-2-2-|-2-2-2---5--------||

||-------------------||
||-------------------||
||-4-4-4-4-----------||
||-4-4-4-4--7-7-7-7--||
||-2-2-2-2--7-7-7-7--||
||----------5-5-5-5--||

We love the low hanging –

||------------------------||
||------------------------||
||-6--6--6--6--6--6--6--6-||
||-6--6--6--6--6--6--6--6-||
||-4--4--4--4--4--4--4--4-||
||------------------------||

Fruit

||-------------------|-------------------|-------------------||
||-------------------|-------------------|-------------------||
||--4-4-4-4-4-4-4-4--|-------------------|--4-4-4-4-4-4-4-4--||
||--4-4-4-4-4-4-4-4--|--4-4-4-4-4-4-4-4--|--4-4-4-4-4-4-4-4--||
||--2-2-2-2-2-2-2-2--|--4-4-4-4-4-4-4-4--|--2-2-2-2-2-2-2-2--||
||-------------------|--2-2-2-2-2-2-2-2--|-------------------||

||-------------------|-------------------||
||-------------------|-------------------||
||--7-7-7-7-7-7-7-7--|--7-7-7-7-7-7-7-7--||
||--7-7-7-7-7-7-7-7--|--7-7-7-7-7-7-7-7--||
||--5-5-5-5-5-5-5-5--|--5-5-5-5-5-5-5-5--||
||-------------------|-------------------||

Because the high class fruit is not gonna f**k me
But the low class fruit is sweet chunky monkey
When you smoke that bood it smell like a skunky c mon!

C mon! C mon! C mon!

||-------------------|------------------||
||-------------------|------------------||
||-------------------|------------------||
||-4-4--4-4-4--4-4-4-|-4-4-4---7--------||
||-4-4--4-4-4--4-4-4-|-4-4-4---7--------||
||-2-2--2-2-2--2-2-2-|-2-2-2---5--------||    x3

||-------------------|------------------||
||-------------------|------------------||
||-------------------|------------------||
||-4-4--4-4-4--4-4-4-|-4-4-4-4-4--------||
||-4-4--4-4-4--4-4-4-|-4-4-4-4-4--------||
||-2-2--2-2-2--2-2-2-|-2-2-2-2-2--------||    x1

© Mart Rauhé
            
Submit corrections


        Low Hangin Fruit lessons Hard to play? Try these video lessons and learn fast Low Hangin Fruit lessons
        
↑ Back to top | Tablatures and chords for acoustic guitar and electric guitar, ukulele, drums are parodies/interpretations of the original songs. You may use it for private study, scholarship, research or language learning purposes only