» » »

Taproot - So Eager Tabs

Artists:  A B C D E F G H I J K L M N O P Q R S T U V W X Y Z # 

So Eager Tabs

(ver. 3) Click to play this song!
Taproot
 Rating:
4/5 (4 votes)

 So Eager lessons Tabs too difficult? Try these video lessons and learn fast
 
                

Hey everyone, This is my first tab and it's probably not 100% correct but im pretty sure 
comes very close. So Eager is an excellent song and I haven't seen one tab for it yet, 
I figured I'd give it a shot.

Intro (I couldn't figure out the really distorted part at the very beginning)

D|---------------------------------------------------|
A|---------------------------------------------------|
F|---------------------------------------------------|
C|---------------------------------------------------|
G|----3-3-3-3-3-3-3-3-3-3br--3-3-3-3-3-3-3-3br-3-3-3-|
C|----3-3-3-3-3-3-3-3-3-3br--3-3-3-3-3-3-3-3br-3-3-3-|

Then:
D|----------------------------------------------------------------|
A|----------------------------------------------------------------|
F|----------------------------------------------------------------|
C|----------------------------------------------------------------|
G|---7-7-7-7--9-9-9-9--5-5-5-5-9-9-9-9----3-3-3-3-3b--3-3-3-3-b---|
C|---7-7-7-7-----------5-5-5-5------------3-3-3-3-3b--3-3-3-3-b---|

Verse: (x4)
D|--------------------------------------------------|
A|--------------------------------------------------|
F|--------------------------------------------------|
C|--11-11-11s--13-13-13--9-9-9------7-------7-------|
G|---9--9--9s--11-11-11--7-7-7----9---9---9---9-----|
C|---9--9--9s--11-11-11--7-7-7--9--------9----------|

Pre-chorus:
D|-------------------------------------------------|
A|-------------------------------------------------|
F|-------------------------------------------------|
C|--9-x-4-x-5s-7--9-x-4-x-5------------------------|
G|--9-x-4-x-5s-7--9-x-4-x-5------------------------|
C|--9-x-4-x-5s-7--9-x-4-x-5------------------------|

Chorus:
D|-----------------------------------------|
A|-----------------------------------------|
F|-----------------------------------------|
C|--9-9-9--11-11-11--7-7--5-5-5-5-5-5-5----|
G|--9-9-9--11-11-11--7-7--5-5-5-5-5-5-5----|
C|--9-9-9--11-11-11--7-7--5-5-5-5-5-5-5----|

D|-------------------------------------|
A|-------------------------------------|
F|-------------------------------------|
C|--9-9-9--11-11-11--13-13-13-13-13----|
G|--9-9-9--11-11-11--13-13-13-13-13----|
C|--9-9-9--11-11-11--13-13-13-13-13----|

Bridge:
D|---------------------------------------------|
A|---------------------------------------------|
F|---------------------------------------------|
C|---3-3-3-3br-3-3-3-3-3-3-3-3br-3-3-3-3br-----|
G|---3-3-3-3br-3-3-3-3-3-3-3-3br-3-3-3-3br-----|
C|---3-3-3-3br-3-3-3-3-3-3-3-3br-3-3-3-3br-----|

Then this x4:                               Finally this x1
D|----------------------------------------|---------------------------|
A|----------------------------------------|---------------------------|
F|----------------------------------------|---------------------------|
C|---7-7-7-7---------5-5-5-5--------------|--9s-4-5s-9s-7-------------|
G|---7-7-7-7-9-9-9-9-5-5-5-5-9-9-9-9------|--9s-4-5s-9s-7-------------|
C|---7-7-7-7---------5-5-5-5--------------|--9s-4-5s-9s-7-------------|

Well there you go, if anyone can figure out that distortion part in the intro and outro 
me know. This song is great, so have a blast with it.
            
Submit corrections


        So Eager lessons Hard to play? Try these video lessons and learn fast So Eager lessons
        
↑ Back to top | Tablatures and chords for acoustic guitar and electric guitar, ukulele, drums are parodies/interpretations of the original songs. You may use it for private study, scholarship, research or language learning purposes only