Home » T » Tanya Tucker »

Tanya Tucker - Walking Shoes Tabs

Artists:  A B C D E F G H I J K L M N O P Q R S T U V W X Y Z # 

Walking Shoes Tabs

(ver. 2) Click to play this song!
Tanya Tucker
Lead                                                 
E---|------------------------------------------------------------------------------
B---|--11---------9----------------------------------------------------------------
G---|------10h12-----12--10--------------------------------------------------------
D---|------------------------13--12-------------------8--8--8----------------------
A---|-----------------------------------6--6--6/8h10-----------10--8------8h10--8--
E---|-----------------------------------------------------------------10-----------                 
                                                                     
                                                                    
E---|-------------------------------8-----9-----8----------------------------------
B---|----------------------------------8-----8-------------------------------------
G---|------------------------------------------------------------------------------
D---|----------------8--8--8-------------------------------------------------------
A---|--6--6--6/8h10-----------10---------------------------------------------------
E---|------------------------------------------------------------------------------
                                                                        
            
Submit corrections

↑ Back to top | Tablatures and chords for acoustic guitar and electric guitar, ukulele, drums are parodies/interpretations of the original songs. You may use it for private study, scholarship, research or language learning purposes only