Home » T » Tanya Tucker »

Tanya Tucker - Walking Shoes Tabs

Artists:  A B C D E F G H I J K L M N O P Q R S T U V W X Y Z # 

Walking Shoes Tabs

(ver. 1) Click to play this song!
Tanya Tucker

    Intro                                                      
E---|------------------------------------------------------------------------------
B---|--------11~~~--11~~~--11~~~---------------11--11------------------------------
G---|--8h10--------------------------8/10--10----------10\8------------------------
D---|--------------------------------------------------------8--8--8---------------
A---|------------------------------------------------------------------------------
E---|------------------------------------------------------------------------------
                                                                        

    Lick Played Throughout Song                    
E---|------------------------------------------------------------------------------
B---|--11---------9----------------------------------------------------------------
G---|------10h12-----12--10--------------------------------------------------------
D---|------------------------13--12------------------------------------------------
A---|--------------------------------13--------------------------------------------
E---|------------------------------------------------------------------------------
            
Submit corrections

↑ Back to top | Tablatures and chords for acoustic guitar and electric guitar, ukulele, drums are parodies/interpretations of the original songs. You may use it for private study, scholarship, research or language learning purposes only