Home » S » System Of A Down »

System Of A Down - Cigaro Bass

Artists:  A B C D E F G H I J K L M N O P Q R S T U V W X Y Z # 

Cigaro Bass

(ver. 2) Click to play this song!
System Of A Down
 Rating:
4/5 (4 votes)
                Band:System of a Down
Album:Mezmerize
Tuning:Drop C 
(low-high)C-G-C-F
~~=Let ring
This tab is 100% right i guarantee it.

Intro:                                                                   
F|-----------------------------------------------------------------------|
C|-----------------------------------------------------------------------|
G|-----------------------------------------------------------------------|
C|-1-0-1p0-1-0-1p0-1-0-1p0-1-0-1p0-1-0-1p0-1-0-1p0-13-12-10-12-10-8-10p0-|x2
                                                                          
                                                                         
F|-----------------------------------------------------------------------|
C|-----------------------------------------------------------------------|
G|-----------------------------------------------------------------------|
C|-1-0-1-0-1-0-1-0-1-0-1-0-1-0-1-0-1-0-1-0-1-0-1-0-13-12-10-12-10-8-10-0-|x2




Verse 1:
(My cock is much bigger than yours) 
F|------------------------------------------|
C|------------------------------------------|
G|------------------------------------------|
C|-0-0-0----15-14-15-14-12-11-12-11-8-7-8-7-|
       
F|------------------------------------------|
C|------------------------------------------|
G|-5-5-5------------------------------------|
C|----------15-14-15-14-12-11-12-11-8-7-8-7-|


Chorus 1:
(KOOl, in denial we're the cruel regulators smokin cigaro cigaro cigaro)
F|-----------------------------------------------------------------------|
C|-----------------------------------------------------------------------|
G|-----------------------------------------------------------------------|
C|-1-0-1p0-1-0-1p0-1-0-1p0-1-0-1p0-1-0-1p0-1-0-1p0-13-12-10-12-10-8-10p0-|x2


Verse 2:
(My sh*t stinks much better than yours)
F|------------------------------------------|
C|------------------------------------------|
G|-5-5-5------------------------------------|
C|----------15-14-15-14-12-11-12-11-8-7-8-7-|x2


Chorus 2:
(KOOl, in denial we're the cruel regulators smokin cigaro cigaro cigaro)
F|-----------------------------------------------------------------------|
C|-----------------------------------------------------------------------|
G|-----------------------------------------------------------------------|
C|-1-0-1p0-1-0-1p0-1-0-1p0-1-0-1p0-1-0-1p0-1-0-1p0-13-12-10-12-10-8-10p0-|x2

F|-----------------------------------------------------------------------|
C|-----------------------------------------------------------------------|
G|-----------------------------------------------------------------------|
C|13-12-13-12-13-12-13-12-13-12-13-12-13-12-13-12-13-12-13-12-13-12-13-12|

F|-----------------------|
C|-----------------------|
G|-----------------------|
C|-13-12-10-12-10-8-10-0-|x2


Interlude:
(can't you see that you love my cock)
F|-------------------------|
C|-------------------------|
G|-----7-----7-----7-----7-|
C|-0-0---0-0---0-0---0-0---|   Both riffs x3 
  (Dada dada dada dada)        (then bottom riff x2 more)
F|---------------------|
C|-6~~~----------------|
G|------7~~~-----------|
C|-----------8~~~-5~~~-|


Bridge 1:
(We're the regulators that deregulate)
F|-----------------------------------------------------------------------|
C|-----------------------------------------------------------------------|
G|-----------------------------------------------------------------------|
C|15-14-15-14-17-15-17-15-14-12-14-12-15-14-15-14-12-10-12-10-14-12-14-12|

F|--------|
C|------5-|
G|----8---|
C|-11-----|x4


Chorus 3:
(KOOl, in denial we're the cruel regulators smokin cigaro cigaro cigaro)
F|-----------------------------------------------------------------------|
C|-----------------------------------------------------------------------|
G|-----------------------------------------------------------------------|
C|-1-0-1p0-1-0-1p0-1-0-1p0-1-0-1p0-1-0-1p0-1-0-1p0-13-12-10-12-10-8-10p0-|x2


Bridge 2:
(We're the regulators that deregulate)
F|-----------------------------------------------------------------------|
C|-----------------------------------------------------------------------|
G|-----------------------------------------------------------------------|
C|15-14-15-14-17-15-17-15-14-12-14-12-15-14-15-15-12-10-12-10-14-12-14-12|

F|--------|
C|------5-|
G|----8---|
C|-11-----|x2


Chorus 4:
(KOOl, in denial we're the cruel regulators smokin cigaro cigaro cigaro)
F|-----------------------------------------------------------------------|
C|-----------------------------------------------------------------------|
G|-----------------------------------------------------------------------|
C|-1-0-1p0-1-0-1p0-1-0-1p0-1-0-1p0-1-0-1p0-1-0-1p0-13-12-10-12-10-8-10p0-|x2

Outro:
(My cock is much bigger than yours!)
F|-----------------------------------------------------------------------|
C|-----------------------------------------------------------------------|
G|-----------------------------------------------------------------------|
C|-0-0-0----0-0-0----0-0-0----0-0-0--0-0-0--0-0-0--0-0-0--0-0-0--0-0-0---|

F|--------------------------------|
C|--------------------------------|
G|--------------5-5-5-5-5-5-5-5-5-|
C|-0-0-0--0-0-0-------------------|
            
Submit corrections

↑ Back to top | Tablatures and chords for acoustic guitar and electric guitar, ukulele, drums are parodies/interpretations of the original songs. You may use it for private study, scholarship, research or language learning purposes only