Home » S » System Of A Down »

System Of A Down - Peephole Tabs

Artists:  A B C D E F G H I J K L M N O P Q R S T U V W X Y Z # 

Peephole Tabs

(ver. 1) Click to play this song!
System Of A Down
 Rating:
4/5 (4 votes)
                TUNING: Drop C (Lowest to highest: CGCFAD)

This is one of my favourite songs from the band's first album.  It has a great melody
and a strong rhythm in the verse.  Then the chorus magnificently sums it all up.



This is the intro riff:
|-------------|-------------|-------------|-------------|
|-----3-----3-|-----3-----3-|-----3-----3-|-----3-----3-|
|---3-----3---|---3-----3---|---3-----3---|---3-----3---|
|-------------|-------------|-------------|-------------|
|-------------|-4-----5-----|-0-----0-----|-4-----5-----|
|-5-----5-----|-------------|-------------|-------------|



|-------------|-------------|-------------|-------------|
|---3-3---3-3-|---3-3---3-3-|---3-3---3-3-|---3-3---3-3-|
|---3-3---3-3-|---3-3---3-3-|---3-3---3-3-|---3-3---3-3-|
|-------------|-------------|-------------|-------------|
|-------------|-------------|-------------|-------------|
|-5-----0-----|-5-----0-----|-5-----0-----|-5-----0-----|
"When your stars are baked, and your rivers fly..."



|-------------|-------------|
|-------------|-------------|
|-------------|-------------|
|-4-4-4-4-4-4-|-7-7-7-7-7-7-|
|-4-4-4-4-4-4-|-7-7-7-7-7-7-|
|-4-4-4-4-4-4-|-7-7-7-7-7-7-|
"Sky..."



|-------------|-9-9-9-10-10-10|------------------|-9-9-9-10-10-10|
|-8-8-8-8-8-8-|---------------|-10-10-10-10-10-10|---------------|
|-------------|---------------|------------------|---------------|
|-------------|---------------|------------------|---------------|
|-------------|---------------|------------------|---------------|
|-------------|---------------|------------------|---------------|
"Do you believe, when you're high..."
|-------------|-9-9-9-10-10-10|-13-13-13-13-13-13|-11-11-11-11-11-11|
|-8-8-8-8-8-8-|---------------|------------------|------------------|
|-------------|---------------|------------------|------------------|
|-------------|---------------|------------------|------------------|
|-------------|---------------|------------------|------------------|
|-------------|---------------|------------------|------------------|



|-------------|------------------|-------------|------------------|
|-------------|------------------|-------------|------------------|
|-------------|------------------|-------------|------------------|
|-5-5-5-5-5-5-|-11-11-11-12-12-12|-7-7-7-7-7-7-|-11-11-11-12-12-12|
|-5-5-5-5-5-5-|-11-11-11-12-12-12|-7-7-7-7-7-7-|-11-11-11-12-12-12|
|-5-5-5-5-5-5-|-11-11-11-12-12-12|-7-7-7-7-7-7-|-11-11-11-12-12-12|
"Don't you ever get stuck in the sky..."



I am afraid I cannot tab the solo: that is your responsibility.  As a creative and
productive musician, you must interpret your own solos into anyone else's work of music.
Not only does it improve your improvisation abilities and your talent, but it also makes
you a better songwriter, too.

That's everything from this song.  Oh, and I can't type in the order, either: I am
trusting that you have this album, so you don't need it.  You can learn this song just from the ears, just like I did  :)



              ****
              *****
              ******              Lucas
              ***                 MADE BY MAN
              ***                 MADE FOR ROCK
      ***********   *******
      ***********   ********
      ***********   *********
       **
        *********
            *****
            *****
            *****
            *****
            *****
            *****
            *****
             ****
              ***
               **
                *
            
Submit corrections

↑ Back to top | Tablatures and chords for acoustic guitar and electric guitar, ukulele, drums are parodies/interpretations of the original songs. You may use it for private study, scholarship, research or language learning purposes only