Home » S » System Of A Down »

System Of A Down - Cigaro Bass

Artists:  A B C D E F G H I J K L M N O P Q R S T U V W X Y Z # 

Cigaro Bass

(ver. 1) Click to play this song!
System Of A Down
 Rating:
4/5 (4 votes)
                -------------------------------------------------------------------------------
			     Cigaro - System Of A Down
-------------------------------------------------------------------------------

Tuning: Drop D 1/2 Step Down
Rate Please!

Intro:
Gb|-----------------------------------------------|
Db|-----------------------------------------------| X2
Ab|------------------------14-13-11-13-11-9-11----|
Db|001-001-001-001-001-001------------------------|

Gb|-----------------------------------------------------------------------|
Db|-----------------------------------------------------------------------| X2
Ab|------------------------------------------------14-13-11-13-11-9-11----|
Db|1-0-1-0-1-0-1-0-1-0-1-0-1-0-1-0-1-0-1-0-1-0-1-0------------------------|

Verse:
Gb|-------------------|
Db|-------------------| X2
Ab|-------88775544----|
Db|000----------------|

Chorus:
Gb|-----------------------------------------------|
Db|-----------------------------------------------| X2
Ab|------------------------14-13-11-13-11-9-11----|
Db|001-001-001-001-001-001------------------------|

Verse:
Gb|-------------------|
Db|-------------------| X2
Ab|-------88775544----|
Db|000----------------|

Chorus:
Gb|-----------------------------------------------|
Db|-----------------------------------------------| X2
Ab|------------------------14-13-11-13-11-9-11----|
Db|001-001-001-001-001-001------------------------|

Bridge:
Gb|------------------------------------------------|
Db|------------------------------------------------| X2
Ab|767676767676767676767676-14-13-11-13-11-9-11----|
Db|------------------------------------------------|

Gb|--------------------------------|
Db|--------------------------------|
Ab|--7---7---7---7--13-12-11-10----|
Db|00--00--00--00------------------|

Gb|---------------------------------|
Db|---------------------------------|
Ab|------------------13-12-11-10----|
Db|0000000000000000-----------------|

Gb|--------------------------------|
Db|--------------------------------|
Ab|--7---7---7---7--13-12-11-10----|
Db|00--00--00--00------------------|

Gb|---------------|
Db|---------------| X2
Ab|13-12-11-10----|
Db|---------------|

Gb|---------------------------------------|
Db|---------------------------------------| X4
Ab|9898-11-10-11-10-6565-7676-21212121----|
Db|---------------------------------------|

Chorus:
Gb|-----------------------------------------------|
Db|-----------------------------------------------| X2
Ab|------------------------14-13-11-13-11-9-11----|
Db|001-001-001-001-001-001------------------------|

Gb|---------------------------------------|
Db|---------------------------------------| X2
Ab|9898-11-10-11-10-6565-7676-21212121----|
Db|---------------------------------------|

Chorus:
Gb|-----------------------------------------------|
Db|-----------------------------------------------| X2
Ab|------------------------14-13-11-13-11-9-11----|
Db|001-001-001-001-001-001------------------------|

Outro:
Gb|----------------------------------------------------|
Db|----------------------------------------------------|
Ab|----------------------------------------------------|
Db|000-000-000-000-000-000-000-000-000-000-00000000----|
            
Submit corrections

↑ Back to top | Tablatures and chords for acoustic guitar and electric guitar, ukulele, drums are parodies/interpretations of the original songs. You may use it for private study, scholarship, research or language learning purposes only