Home » S » Survivor »

Survivor - Jackie Dont Go Tabs

Artists:  A B C D E F G H I J K L M N O P Q R S T U V W X Y Z # 

Jackie Dont Go Tabs

(ver. 1) Click to play this song!
Survivor
Tuning: Standard

INTRO:

e|---------------------------------|---------------------------------|---------------------------------|
B|---------------------------------|---------------------------------|---------------------------------|
G|---------------------------------|---------------------------------|---------------------------------|
D|---------------------------------|---------------------------------|--4--4---------------------------|
A|---------------------------------|---------------------------------|--4--4---------------------------|
E|---------------------------------|---------------------------------|--2--2---------------------------|


   PM--|                                                             PM--|
e|---------------------------------|---------------------------------|---------------------------------|
B|---------------------------------|---------------------------------|---------------------------------|
G|-----------6--6----------6-------|---------------------------------|-----------6--6------------------|
D|--2--4--4--6--6----------6----2--|--4--4---------------------------|--2--4--4--6--6------------------|
A|--2--4--4--4--4----------4----2--|--4--4---------------------------|--2--4--4--4--4------------------|
E|--0--2--2---------------------0--|--2--2---------------------------|--0--2--2------------------------|

                                    PM--|
e|---------------------------------|---------------------------------|---------------------------------|
B|---------------------------------|---------------------------------|---------------------------------|
G|---------------------------------|-----------6--6------------------|---------------------------------|
D|--4--4---------------------------|--2--4--4--6--6------------------|--4--4---------------------------|
A|--4--4---------------------------|--2--4--4--4--4------------------|--4--4---------------------------|
E|--2--2---------------------------|--0--2--2------------------------|--2--2---------------------------|

   PM
e|---------------------------------|---------------------------------|---------------------------------|
B|---------------------------------|---------------------------------|---------------------------------|
G|-----------6--6------------------|------7-7-7-7-7-9-9-9-9-9-9-9-9--|------7-7-7-7-7-9-9-9-6-6-6-6----|
D|--2--4--4--6--6------------------|4-4-4-7-7-7-7-7-9-9-9-9-9-9-9-9\2|4-4-4-7-7-7-7-7-9-9-9-6-6-6-6\2--|
A|--2--4--4--4--4------------------|4-4-4-5-5-5-5-5-7-7-7-7-7-7-7-7\2|4-4-4-5-5-5-5-5-7-7-7-4-4-4-4\2--|
E|--0--2--2------------------------|2-2-2---------------------------0|2-2-2-------------------------0--|

                                                                00:58  ^   PM-------------|
e|---------------------------------|---------------------------------|---------------------------------|
B|---------------------------------|---------------------------------|---------------------------------|
G|------7-7-7-7-7-9-9-9-9-9-9-9-9--|------7-7-7-7-7-9-9-9-9-9-9-9-9--|---------------------------------|
D|4-4-4-7-7-7-7-7-9-9-9-9-9-9-9-9\2|4-4-4-7-7-7-7-7-9-9-9-9-9-9-9-9\2|-4----4-4-4-4-4-4-4-4------------|
A|4-4-4-5-5-5-5-5-7-7-7-7-7-7-7-7\2|4-4-4-5-5-5-5-5-7-7-7-7-7-7-7-7\2|-4----4-4-4-4-4-4-4-4------------|
E|2-2-2---------------------------0|2-2-2---------------------------0|-2----2-2-2-2-2-2-2-2------------|

e|---------------------------------|---------------------------------|---------------------------------|
B|---------------------------------|---------------------------------|---------------------------------|
G|---------------------------------|---------------------------------|---------------------------------|
D|---------------------------------|---------------------------------|---------------------------------|
A|---------------------------------|---------------------------------|---------------------------------|
E|---------------------------------|---------------------------------|---------------------------------|            
Submit corrections

↑ Back to top | Tablatures and chords for acoustic guitar and electric guitar, ukulele, drums are parodies/interpretations of the original songs. You may use it for private study, scholarship, research or language learning purposes only