» » »

Styx - Come Sail Away Tabs

Artists:  A B C D E F G H I J K L M N O P Q R S T U V W X Y Z # 

Come Sail Away Tabs

(ver. 3) Click to play this song!
Styx
 Rating:
4/5 (4 votes)

 Come Sail Away lessons Tabs too difficult? Try these video lessons and learn fast
 
                
Styx


(4:22)
guitar 1 : (rythym fig 1)
e---------------------------------------------------------|
b--5---------------x-10---10----12vvvvv--x-x--10------10\-|
g--5-------x-x--10-x-10---10----12vvvvv--x-x--10--10--10\-|
d--5-------x-x--10-x-10---10----12vvvvv--x-x--10--10--10\-|
a--3-------x-x--8---------------------------------8-------|
e---------------------------------------------------------|
guitar 2 :
e---------------------------------------------------------|
b---------------------------------------------------------|
g--5-------x-x--------------------------------------------|
d--5-------x-x--3----3-----3----5-------------3-----------|
a--3-------x-x--3----3-----3----5-------------3-----------|
e---------------1----1-----1----3-------------1-----------|


Now, heres 3 ways to play the fast part behind the vocals :
(Rythym fig 1 is repeated by guitar 1_)

(4:35)
  T	  T	  T	  T        T 	   T	   T	
e-15^12^8-15^12^8-15^12^8-15^12^8--17^13^8-17^13^8-17^13^8-|
b----------------------------------------------------------|
g----------------------------------------------------------|
d----------------------------------------------------------|
a----------------------------------------------------------|
e----------------------------------------------------------|
   T        T	     T	      T        T	 T  	
e--17^13^8--19^15^10-19^15^10-19^15^10-19^15^10--17^13^8--|
b---------------------------------------------------------|
g---------------------------------------------------------|
d---------------------------------------------------------|
a---------------------------------------------------------|
e---------------------------------------------------------|
  T	  T	  T
e-17^13^8-17^13^8-17^13^8-|
b-------------------------|
g-------------------------|
d-------------------------|
a-------------------------|
e-------------------------|

OR

e--15p12----15p12----15p12----15p12-----17p13----17p13----|
b--------13-------13-------13-------13--------13-------13-|
g---------------------------------------------------------|
d---------------------------------------------------------|
a---------------------------------------------------------|
e---------------------------------------------------------|

e-17p13----17p13-----15--19p15----19p15----19p15----19p15-----|
b-------13-------13------------15-------15-------15-------15--|
g-------------------------------------------------------------|
d-------------------------------------------------------------|
a-------------------------------------------------------------|
e-------------------------------------------------------------|

e--17p13----17p13----17p13----17p13----|
b--------13-------13-------13-------13-|
g--------------------------------------|
d--------------------------------------|
a--------------------------------------|
e--------------------------------------|

or

e-15p12-15p12-15p12-15p12--17p13-17p13-17p13-17p13--15--|
b-------------------------------------------------------|
g-------------------------------------------------------|
d-------------------------------------------------------|
a-------------------------------------------------------|
e-------------------------------------------------------|

e--19p15-19p15-19p15-19p15--17p13-17p13-17p13-17p13--|
b----------------------------------------------------|
g----------------------------------------------------|
d----------------------------------------------------|
a----------------------------------------------------|
e----------------------------------------------------|

then

(5:06)
e-------------------------------------------------------------|
b-------------------13--15bvvvvv-15b--r15--13vv--15bvvvvvvvv--|
g------------12-14--------------------------------------------|
d--------/14--------------------------------------------------|
a--/15vv------------------------------------------------------|
e-------------------------------------------------------------|

e-------------------------------------------------------|
b-15-13--18bvvvvvv--20b---20b--r20vvvv------------------|
g----------------------------------------19p17----------|
d----------------------------------------------21p17----|
a-------------------------------------------------------|
e-------------------------------------------------------|

e--------------------------------18bvvv--18bvvv---------|
b--18bvvvvvvv-r18p16--18bvvvvvv-------------------------|
g-------------------------------------------------------| ... ad libs
d-------------------------------------------------------|  in C scale
a-------------------------------------------------------|
e-------------------------------------------------------|

|BS is cool
            
Submit corrections


        Come Sail Away lessons Hard to play? Try these video lessons and learn fast Come Sail Away lessons
        
↑ Back to top | Tablatures and chords for acoustic guitar and electric guitar, ukulele, drums are parodies/interpretations of the original songs. You may use it for private study, scholarship, research or language learning purposes only