Home » S » Styx »

Styx - Come Sail Away Bass

Artists:  A B C D E F G H I J K L M N O P Q R S T U V W X Y Z # 

Come Sail Away Bass

(ver. 3) Click to play this song!
Styx
 Rating:
4/5 (4 votes)
                Styx Come Sail Away 

standard tuning

1:13
G|----------------------------|
D|------0----2----0-----------|
A|-3-------------------3------|
E|--------------------------3-|
     
1:25 
G|------------------------------------------------------|
D|-----------------------------33---33--5----5----------|
A|-3----2----0----0--------3--3---3--------5---5------0-|
E|------------------3-1--------------------------3--3---|
  
1:41  
G|-------------------------------------------------|
D|-----------------------------33---33--5----5-----|
A|-3----2----0----0--------3--3---3--------5---5---|
E|------------------3-1--------------------------3-|

1:57 x2
G|--------------------------------------------------------------------------|
D|---------7-7----7---5-----5-------------------7-7----7---5-----5----------|
A|----7--7------7---7----5----5------------7--7------7---7----5----5------0-|
E|-5----------------------------3--3-3--5----------------------------3--3---|
  
2:13
G|--------------------------------------------------------|
D|--------------------------------------------------------|
A|-3----2----0----0-------------------------------------3-|
E|------------------3-1-1-1-1-1-1-1-1--3-3-3-3-3-3-3-3----|
   
2:27 
G|--------------------------------------------------|
D|--------------------------------------------------|
A|-3--3---3----3--3---333----3--3---3----3--3---333-|
E|--------------------------------------------------|
    
2:39 x6
G|-------------------------------------------|
D|-------------------------------------------|
A|-33333333-33333333-3--33333333-33333333-3--|
E|-------------------------------------------|
    
3:17
G|--------------------------------------------------------------------|
D|-6-4-----6-4-----6-4-----6-4-----6-4-----6-4-----6-4-----6-4------6-|
A|-----6-------6-------6-------6-------6-------6-------6-------6------|
E|-------4-------4-------4-------4-------4-------4-------4-------4----|
   
3:38 x9                                  4:11
G|------------------------------------|  G|--------------------------|
D|------6---6--------6---6--------6---|  D|------6---6--------6------|
A|----6---6---6----6---6---6----6---6-|  A|----6---6---6----6---6----|
E|--4------------4------------4-------|  E|--4------------4--------4-|

4:27 x2
G|------------------------------------------------------|  
D|------------------------------------------------------|  
A|-333-333333--3/15--3/15--3/15--333-333333--3/15--3/15-| 
E|------------------------------------------------------|  

4:40 repeat until end
G|-------------------------------------------|
D|-------------------------------------------|
A|-33333333-33333333-3--33333333-33333333-3--|
E|-------------------------------------------|
            
Submit corrections

↑ Back to top | Tablatures and chords for acoustic guitar and electric guitar, ukulele, drums are parodies/interpretations of the original songs. You may use it for private study, scholarship, research or language learning purposes only