» » »

Strung Out - Bring Out Your Dead Tabs

Artists:  A B C D E F G H I J K L M N O P Q R S T U V W X Y Z # 

Bring Out Your Dead Tabs

(ver. 2) Click to play this song!
Strung Out
 Rating:
4/5 (4 votes)

 Bring Out Your Dead lessons Tabs too difficult? Try these video lessons and learn fast
 
                
Note: Drop to full D tuning 

m= Mute 
o= Open (or, if nothing is above the note, it's played open) 
b(#)= bend note up to #th fret 
h= Hammer on 
~= wah wah pedal 
...=Sustain 

Intro 
Jake 
mmmmmmmmmmmmmmmm 
d|---------------------------------------------------------------------------| 
A|---------------------------------------------------------------------------| 
F|---------------------------------------------------------------------------| 
C|---7777777777777777---------5---2--5---------------------------------------| 
G|---7777777777777777-etc.----5---2--5---------------------------------------| 
D|---5555555555555555---------3---0--3---------------------------------------| 

Rob 3X 
d|---------------------------------------------------------------------------| 
A|---------------------------------------------------------------------------| 
F|---14--14-14-14-------------12--9--12--------------------------------------| 
C|---14--14-14-14-------------12--9--12--------------------------------------| 
G|---12--12-12-12-------------10--7--10--------------------------------------| 
D|---------------------------------------------------------------------------| 

d|---------------------------------------------------------------------------| 
A|---------------------------------------------------------------------------| 
F|---------------------------------------------------------------------------| 
C|---7-7h8-7-7h8-7h8-10-8-7-7h8-7-7h8-7-------------2X-----------------------| 
G|--------------------------------------10-7h10p7----------------------------| 
D|---------------------------------------------------------------------------| 

mmmm m m m m mmmm mmmm 
d|---------------------------------------------------------------------------| 
A|---------------------------------------------------------------------------| 
F|---------------------------------------------------------------------------| 
C|---7777--10101010-9999--5555---4X------------------------------------------| 
G|---7777--10101010-9999--5555-----------------------------------------------| 
D|---5555--8-8-8-8--7777--3333-----------------------------------------------| 

oooo o o o o oooo oooo 
d|---------------------------------------------------------------------------| 
A|---------------------------------------------------------------------------| 
F|---------------------------------------------------------------------------| 
C|---7777--10101010-9999--5555---4X------------------------------------------| 
G|---7777--10101010-9999--5555-----------------------------------------------| 
D|---5555--8-8-8-8--7777--3333-----------------------------------------------| 


Chorus 
oooo o o o o oooo o o oo 
d|---------------------------------------------------------------------------| 
A|---------------------------------------------------------------------------| 
F|---------------------------------------------------------------------------| 
C|---7777--10101010--5555--1010-55-------------------------------------------| 
G|---7777--10101010--5555--1010-55-3X----------------------------------------| 
D|---5555--8-8-8-8---3333--8-8--33-------------------------------------------| 

d|---------------------------------------------------------------------------| 
A|---------------------------------------------------------------------------| 
F|---------10101010--99999---------------------------------------------------| 
C|---7777--10101010--99999---------------------------------------------------| 
G|---7777--8-8-8-8---77777---------------------------------------------------| 
D|---5555--------------------------------------------------------------------| 

d|---------------------------------------------------------------------------| 
A|---------------------------------------------------------------------------| 
F|---------------------------------------------------------------------------| 
C|---7-7h8-7-7h8-7h8-10-8-7-7h8-7-7h8-7------------2X------------------------| 
G|--------------------------------------10-7h10p7----------------------------| 
D|---------------------------------------------------------------------------| 

mmo m m o mmo mmo 
d|---------------------------------------------------------------------------| 
A|---------------------------------------------------------------------------| 
F|---------------------------------------------------------------------------| 
C|---777--101010-999--555--4X------------------------------------------------| 
G|---777--101010-999--555----------------------------------------------------| 
D|---555--8-8-8--777--333----------------------------------------------------| 

Play Chorus 

Solo 
d|-----------------------------------------------------7-8----9b(10)-8-------| 
A|---------6----------------------------------------10-----10----------------| 
F|-----6-7---7-6---6---6-----------------------------------------------------| 
C|---7-----------7---7---7-6--------------------5-7--------------------------| 
G|---------------------------7-6------------5-7------------------------------| 
D|-------------------------------8-7--5-7-8----------------------------------| 

d|---------------------------------------------------------------------------| 
A|---------------------------------------------------------------------------| 
F|------------5h7-7b(9)---5----5---------------------------------------------| 
C|---7~7~-5-7-----------7---77---7-5---5-------------------------------------| 
G|-----------------------------------7---77-5--------------5-----------------| 
D|--------------------------------------------88-7--55-7-8---8-7-5-----------| 

d|----15-13-12----------------------12...------------------------------------| 
A|-------------15-13-12-15-13-12-13---------10-------------------------------| 
F|---------------------------------------------------------------------------| 
C|---------------------------------------------------------------------------| 
G|---------------------------------------------------------------------------| 
D|---------------------------------------------------------------------------| 

( Played By Bass ) 
d|---------------------------------------------------------------------------| 
A|---------------------------------------------------------------------------| 
F|---------------------------------------------------------------------------| 
C|-----------------------2X--------------------------------------------------| 
G|--------8888-5555-7777-----------------------------------------------------| 
D|---5555--------------------------------------------------------------------| 

mmmmmmmm m m m m m m m m mmmmmmmm mmmmmmmm 
d|---------------------------------------------------------------------------| 
A|---------------------------------------------------------------------------| 
F|------------1010101010101010-77777777--99999999----------------------------| 
C|--77777777--1010101010101010-77777777--99999999--2X------------------------| 
G|--77777777--8-8-8-8-8-8-8-8--55555555--77777777----------------------------| 
D|--55555555-----------------------------------------------------------------| 

oooo o o o o oooo oooo 
d|---------------------------------------------------------------------------| 
A|---------------------------------------------------------------------------| 
F|--------10101010-7777--9999------------------------------------------------| 
C|--7777--10101010-7777--9999--4X--------------------------------------------| 
G|--7777--8-8-8-8--5555--7777------------------------------------------------| 
D|--5555---------------------------------------------------------------------| 

Play Chorus with altered lyrics 
d|---------------------------------------------------------------------------| 
A|---------------------------------------------------------------------------| 
F|--------10...--7...--9...--------10...--9...-------------------------------| 
C|--7...--10...--7...--9...--7...--10...--9...-------------------------------| 
G|--7...--8....--5...--7...--7...--8....--7...-------------------------------| 
D|--5...---------------------5...--------------------------------------------| 
            
Submit corrections


        Bring Out Your Dead lessons Hard to play? Try these video lessons and learn fast Bring Out Your Dead lessons
        
↑ Back to top | Tablatures and chords for acoustic guitar and electric guitar, ukulele, drums are parodies/interpretations of the original songs. You may use it for private study, scholarship, research or language learning purposes only