» » »

Strung Out - Bring Out Your Dead Tabs

Artists:  A B C D E F G H I J K L M N O P Q R S T U V W X Y Z # 

Bring Out Your Dead Tabs

(ver. 1) Click to play this song!
Strung Out
 Rating:
4/5 (4 votes)

 Bring Out Your Dead lessons Tabs too difficult? Try these video lessons and learn fast
 
                *Works best drop D but sounds fine on Standard, 
added lyrics for ya at the botton too. ENJOY!*

Intro (x2)
G|---Mute--------------------------------------------------------|
D|---These------------5--8--3------------------------------------|
A|---Four-------------5--8--3------------------------------------|
E|---Strings----------3--6--1------------------------------------|

Verse Intro (x2)
G|---------------------------------------------------------------|
D|--5-5h6-5-5h6-5--8-6---5-5h6-5-5h6-5---------------------------|
A|--------------------------------------8-5----------------------|
E|---------------------------------------------------------------|

Verse (x4 muted, x4 open)
G|---------------------------------------------------------------|
D|--5-5-5-5---8-8-8-8---7-7-7-7---3-3-3-3------------------------|
A|--5-5-5-5---8-8-8-8---7-7-7-7---3-3-3-3------------------------|
E|--3-3-3-3---6-6-6-6---5-5-5-5---1-1-1-1------------------------|

Chorus (x3)
G|---------------------------------------------------------------|
D|--5-5-5-5---8-8-8-8---3-3-3-3---8-8--3-3-----------------------|
A|--5-5-5-5---8-8-8-8---3-3-3-3---8-8--3-3-----------------------|
E|--3-3-3-3---6-6-6-6---1-1-1-1---6-6--1-1-----------------------|

And then
G|---------------------------------------------------------------|
D|--5-5-5-5---8-8-8-8---3-3-3-3----------------------------------|
A|--5-5-5-5---8-8-8-8---3-3-3-3----------------------------------|
E|--3-3-3-3---6-6-6-6---1-1-1-1----------------------------------|

Verse Intro (x2)
Verse (x4 muted)
Chorus (x4)

Solo
e|---------------------------------------------------5-6---7b(8)-|
B|--------4----------------------------------------8-----8-------|
G|----4-5---5-4---4---4------------------------------------------|
D|--5-----------5---5---5-4--------------------3-5---------------|
A|--------------------------5-4------------3-5-------------------|
E|------------------------------6-5--3-5-6-----------------------|

e|--6------------------------------------------------------------|
B|---------------------------------------------------------------|
G|--------------3h5-5b(7)---3-----3------------------------------|
D|-----5~5~-3-5-----------5---5-5---5-3---3----------------------|
A|--------------------------------------5---5-5-3----------------|
E|------------------------------------------------6-6-5--3-3-5-6-|

e|------------13-11-10------------------------10...--------------|
B|----------------------13-11-10--13-11-10-11-------8\-----------|
G|---------------------------------------------------------------|
D|--3------------------------------------------------------------|
A|----6-5-3------------------------------------------------------|
E|---------------------------------------------------------------|
Pause For Bass

Bridge (x4 muted, x4 open)
G|------------8-8-8-8---5-5-5-5---7-7-7-7------------------------|
D|--5-5-5-5---8-8-8-8---5-5-5-5---7-7-7-7------------------------|
A|--5-5-5-5---6-6-6-6---3-3-3-3---5-5-5-5------------------------|
E|--3-3-3-3------------------------------------------------------|
Chorus (x4)

Outro
G|-------8----5----7-------------8----5--------------------------|
D|--5----8----5----7--------5----8----5--------------------------|
A|--5----6...-3...-5...-----5----6...-3...-----------------------|
E|--3...--------------------3...---------------------------------|



Here they are.... sung pretty fast in the song but this im pretty sure
is 100 % of what their saying..

one brief recollection of all the people in my life that have come and gone
one brief fleeting moment of people i've loved and people that i have wronged
long lost are loved ones gone but this bird cannot seem to mend it's broken
wings so the lust for life dissipated and a new greed rises for the needful
things.

*Chorus* don't wanna think about it, i indulge myself, distraction eases pain,
bury my emotions to protect myself. till i can't feel a ***ing thing i've dared
to dream i've tried to live, but i've played it safe again just another 
slave to my vices now, bring out your dead

voices wither and crack then die ringin' in my ear would sing me soft asleep
deathly silence now is all i hear has inspiration finally eluded me 
*Repeat chorus*
my addiction, my illness, my only trusted friend my addiction my illness
my only childhood fiend. your twisted warm embrace engulfing all i tried
to be my body's breaking under arms that will not set me free

*New chorus (sung at end)* locked in this cage that i've built myself
constructed out of twisted cold reminders of a life once lost but i've
found my way again. here among the wreckage and the vampires i'll play
 it safe again, just another slave to my vices now.
            
Submit corrections


        Bring Out Your Dead lessons Hard to play? Try these video lessons and learn fast Bring Out Your Dead lessons
        
↑ Back to top | Tablatures and chords for acoustic guitar and electric guitar, ukulele, drums are parodies/interpretations of the original songs. You may use it for private study, scholarship, research or language learning purposes only