Home » S » Strokes »

Strokes - Trying Your Luck Bass

Artists:  A B C D E F G H I J K L M N O P Q R S T U V W X Y Z # 

Trying Your Luck Bass

(ver. 3) Click to play this song!
Strokes
 Rating:
4/5 (4 votes)
                -----------------------------------------------------------------------------
			     Trying Your Luck - The Strokes
-----------------------------------------------------------------------------


Tuning: EADG


Intro 

  0:00
G|---------------------------------------------|
D|---------------------------------------------|
A|00000000----------55555555-------------------|   x4
E|---------11111111----------33333333-00000000-|


Bridge 

"no harm, hes armed.."
  0:33
G|----------------------------------------------------------------------|
D|----------------------------------------------------------------------|
A|8-8888---5-5555---3-3333---7-7777---8-8888---5-5555---3-3333---2-2222-|
E|----------------------------------------------------------------------|

Verse

"..and storefronts rarely change.."
  0:47
G|---------------------------------------------|
D|---------------------------------------------|
A|00000000----------55555555-------------------|   x2
E|---------11111111----------33333333-00000000-|


Chorus

"and i lost my page.."
  1:03
G|----------------------------------------|
D|----------------------------------------|
A|-------78878--35535--530-----57757(757)-| x2(brackets on second time)
E|35535-------------------3---------------|

"...my side. Well,.."
  1:20
G|------------------------------------------------|
D|------------------------------------------------|
A|---------7887888--355355-530----------57757(77)-| x2(brackets first time)
E|3553555---------------------33333333------------|

Verse

"Let's see whats for sale.."
  1:37
G|---------------------------------------------|
D|---------------------------------------------|
A|00000000----------55555555-------------------| x4
E|---------11111111----------33333333-00000000-|

Bridge

"no harm, hes armed.."
  2:11
G|----------------------------------------------------------------------|
D|----------------------------------------------------------------------|
A|8-8888---5-5555---3-3333---7-7777---8-8888---5-5555---3-3333---2-2222-|
E|----------------------------------------------------------------------|

Solo

  2:23
G|----------------------------------------------------|
D|----------------------------------------------------|
A|---------88888888-5555555-1010101010101010-77777777-| x2 (10s not 1 0 1 0)
E|55555555--------------------------------------------|

Chorus

"and i lost my page.."
  2:40
G|----------------------------------------|
D|----------------------------------------|
A|-------78878--35535--530-----57757(757)-| x2(brackets on second time)
E|35535-------------------3---------------|

"...my side. Well,.."
  2:57
G|----------------------------------------------|
D|----------------------------------------------|
A|---------7887888--355355-530----------5775777-| 
E|3553555---------------------33333333----------|

"ooohhhh.."
3:05
G|--------------------------------------------------|
D|-------------------------------------------567~~~-|
A|---------7887888--355355-530----------7777--------| 
E|3553555---------------------33333333--------------|


First tab, rate it, play it, lets rock baby. =)



| /  slide up
| \  slide down
| h  hammer-on
| p  pull-off
| ~  vibrato
| +  harmonic
| x  Mute note
=============================================================================
            
Submit corrections

↑ Back to top | Tablatures and chords for acoustic guitar and electric guitar, ukulele, drums are parodies/interpretations of the original songs. You may use it for private study, scholarship, research or language learning purposes only