Home » S » Strokes »

Strokes - Trying Your Luck Tabs

Artists:  A B C D E F G H I J K L M N O P Q R S T U V W X Y Z # 

Trying Your Luck Tabs

(ver. 3) Click to play this song!
Strokes
 Rating:
4/5 (4 votes)
                
(INTRO)

Rhythum Guitar

       Am          F         Dm         G          Em
E||--0-0---0----1-1---1----1-1---1----3-3---3----0-0---0------------||
B||--1-1---1----1-1---1----3-3---3----0-0---0----0-0---0------------||
G||--2-2---2----3-3---3----2-2---2----0-0---0----0-0---0------------||
D||--2-2---2----2-2---2----0-0---0----0-0---0----2-2---2------------||
A||--0-0---0----2-2---2---------------2-2---2----2-2---2------------||
E||-------------1-1---1---------------3-3---3----0-0---0------------||
1.You Said You Could'nt Stay You've Seen It All Before.......
2.And Store Fronts Rarely Change At Least I'm On My Own Again......
3.Lets See What's For Sale Hes Trying Not To Give His Job........ 
Lead Gutuitar

E||-----------------------------------------------------------------||
B||-----------------------------------------------------------------||
G||--555555555555555555555554444444444444445555555555555555555------||
D||-----------------------------------------------------------------||
A||-----------------------------------------------------------------||
E||-----------------------------------------------------------------||

(PRE_CHORES)
Rhythum Guitar/Lead Guitar 

       F       D       C       E       F       D       C       B
E||--1-1--1--2-2--2--1-1--1--0-0--0--1-1--1--2-2--2--1-1--1--2-2--2------||
B||--1-1--1--3-3--3--2-2--2--0-0--0--1-1--1--3-3--3--2-2--2--4-4--4------||
G||--3-3--3--2-2--2--3-3--3--0-0--0--3-3--3--2-2--2--3-3--3--4-4--4------||
D||--2-2--2--0-0--0--3-3--3--2-2--2--2-2--2--0-0--0--3-3--3--4-4--4------||
A||--2-2--2----------0-0--0--2-2--2--2-2--2----------0-0--0--2-2--2------||
E||--1-1--1------------------0-0--0--1-1--1------------------------------||
1.No Harm Hes Armed Setting Of All Your Alarms When I Find..........
2.No Harm Hes Armed Setting Of All Your Alarms Entranced I..........


(Chorus)

E||-----------------------------------------------------------------||
B||-----------------------------------------------------------------||
G||-----------------------------------------------------------------||
D||-----------------------------------------------------------------||
A||------------5-88-5-8---3-55-3-5---5-3-0-----5-77-5-7-------------||
E||--3-55-3-5-------------------------------3-----------------------||
2.And I Lost My Page Again................
3.And I Lost My Page Again................
            
Submit corrections

↑ Back to top | Tablatures and chords for acoustic guitar and electric guitar, ukulele, drums are parodies/interpretations of the original songs. You may use it for private study, scholarship, research or language learning purposes only