Home » S » Strokes »

Strokes - Trying Your Luck Tabs

Artists:  A B C D E F G H I J K L M N O P Q R S T U V W X Y Z # 

Trying Your Luck Tabs

(ver. 1) Click to play this song!
Strokes
 Rating:
4/5 (4 votes)
                Key:

h        Hammer-on
p        Pull-of
/        Slide up
\        Slide down
b        Bend Up
b*b*b*   Bend Up and Bend Down
V*       Verse
PC*      Pre-Chorus

* = Number



Verses:

E||-----------------------------------------------------------------||
B||-----------------------------------------------------------------||
G||--555555555555555555555554444444444444445555555555555555555------||X2
D||-----------------------------------------------------------------||
A||-----------------------------------------------------------------||
E||-----------------------------------------------------------------||

       Am          F         Dm         G          E
E||-------------1-1---1----1-1---1----3-3---3-----------------------||
B||--1-1---1----1-1---1----3-3---3----0-0---0-----------------------||
G||--2-2---2----2-2---2----2-2---2----0-0---0----1-1---1------------||X4
D||--2-2---2----3-3---3---------------0-0---0----2-2---2------------||
A||-----------------------------------2-2---2----2-2---2------------||
E||-----------------------------------3-3---3-----------------------||

V1: You said you couldn't stay, you've seen it all before I know 
    And sold you on their way, oh honey that's ok

V2: And stuffers rarely change, at least I'm on my own again instead of
    Anywhere with you, oh tell me it's all the same

V3: Let's see what is for sale, he's trying not to give his job a chance 
    It's never gonna be, it's sad but I agree 
    The signals don't seem right, it lasts for just one night and then 
    I'm sorry that I saidthat we were just good friends


Pre-Chorus:

       F       Dm       C       E       F      Dm      C       B
E||--1-1--1--1-1--1------------------1-1--1--1-1--1----------------------||
B||--1-1--1--3-3--3--1-1--1----------1-1--1--3-3--3--1-1--1--------------||
G||--2-2--2--2-2--2--0-0--0--1-1--1--2-2--2--2-2--2--0-0--0--4-4--4------||
D||--3-3--3----------2-2--2--2-2--2--3-3--3----------2-2--2--4-4--4------||
A||------------------3-3--3--2-2--2------------------3-3--3--2-2--2------||

No harm, he's armed
Settin' off all your alarms
When I find out  
  (PC2: Entranced, I can't)
I hope it's you who set this trap  
  (PC2: Be here in time I'll think about that)

Chorus:

E||--------------------------------------------------------------------||
B||--------------------------------------------------------------------||
G||--------------------------------------------------------------------||
D||--------------------------------------------------------------------||
A||------------7-8-8-7-8---3-5-5-3-5---5-3-0-----5-7-7-5-7-------------||
E||--3-5-5-3-5-------------------------------3-------------------------||

And I've lost my place again
I know this is surreal
But I'll try my luck with you
This life is on my side
Oh I am your one
Believe me, this is a chance 
Oh, oh


Solo:

E||--8-7-5--8-7-5-------8-10-10b12b12-8----------8-10-10b12b10-8-------||
B||----------------8/10-----------------10--8/10-----------------12----||
G||--------------------------------------------------------------------||
D||--------------------------------------------------------------------||
A||--------------------------------------------------------------------||
E||--------------------------------------------------------------------||


E||--15b17b15-13-12-10--------------------------------12b--15b--17b----||
B||--------------------13-12-10h12-12-12-10h12-12/13--12b--15b--17b----||
G||--------------------------------------------------------------------||
D||--------------------------------------------------------------------||
A||--------------------------------------------------------------------||
E||--------------------------------------------------------------------||


Ending:

E||--------------------------------------------------------------------||
B||--------------------------------------------------------------------||
G||--------------------------------------------------------------------||
D||--------------------------------------------------------------------||
A||--------------------------------------------------------------------||
E||--0-0-0-0-0-3-5-----------------------------------------------------||


Timetable:

V1
Pre-Chorus 1
V2
Chorus
V3
Pre-Chorus 2
Solo
Chorus
Ending
            
Submit corrections

↑ Back to top | Tablatures and chords for acoustic guitar and electric guitar, ukulele, drums are parodies/interpretations of the original songs. You may use it for private study, scholarship, research or language learning purposes only