» » »

Streetlight Manifesto - Somewhere In The Between Bass

Artists:  A B C D E F G H I J K L M N O P Q R S T U V W X Y Z # 

Somewhere In The Between Bass

(ver. 2) Click to play this song!
Streetlight Manifesto
 Rating:
4/5 (4 votes)

 Somewhere In The Between lessons Tabs too difficult? Try these video lessons and learn fast
 
                The timing is here, each measure IS a measure in the song
tri/tripl are triplets...listen
%% are rests
hammer whatever you want
there are some parts that you may want to play on higher frets...go right ahead and do that


Guitar Intro	[Pickup to Intro]
G|--%------------|
D|--%--------tri-|
A|--%--------320-|
E|--%------------|


Horns Enter (:02) [Intro]
G|----------------|----------------|--------|--------|
D|----------------|----2---3--20--2|3-3-----|----5---|
A|3---3--3--------|----------------|----3-3-|--5---5-|
E|--------3---3--3|5---------------|--------|3-------|

G|----------------|----------------|--------|----%%%%|
D|----------------|--------3--20---|----5---|----%%%%|
A|3---3--3--------|0---0--0--------|3-------|3---%%%%|
E|--------0---0--0|---------------3|--------|----%%%%|


You were gone... (:14) [Verse 1]
G|--------|----------------|--------|----------------|
D|--------|------2---------|3---2---|0---------------|
A|3-3-2-2-|0---0-----3-0---|--------|----2--0----3---|
E|--------|----------------|--------|--------3-------|

G|--------|--------2-------|----------------|-----------%%%%%|
D|--------|----2-------2--0|----2---3---2--0|-----------%%%%%|
A|3-------|----------------|3---------------|3----------%%%%%|
E|----0---|5---------------|----------------|-----012-3-%%%%%|


Maybe the times we had... (:27) [Prechorus 1]
G|----------|----------|--------------|tri--tri--|
D|tri--tri--|tri--tri--|tri----tri----|5555-5555-|
A|3333----5-|----------|-------3333--5|----------|
E|-----333--|5555-5555-|1111----------|----------|

G|----------|----------|----------|-----%%%|
D|tri--tri--|tri--tri--|tri--tri--|-----%%%|
A|3333------|----------|3333------|3----%%%|
E|-----0000-|5555-1111-|-----3333-|-----%%%|


So you were born... (:40) [Chorus 1]
G|--------|--------|--------|--------|--------|--------|------tri|----|
D|--------|------2-|--------|--------|--------|--------|----2-2--|----|
A|3-3-----|--2-3---|5-5-3-3-|----2-5-|3-3-----|--2-3---|3-5----03|3---|
E|----0-0-|5-------|--------|3-5-----|----0-0-|5-----1-|---------|----|


Horn Melody (:54) [Interlude 1]
G|----------------|----------------|--------|--------|
D|----------------|----2---3--20--2|3-3-----|----5---|
A|3---3--3--------|----------------|----3-3-|--5---5-|
E|--------3---3--3|5---------------|--------|3-------|

G|----------------|----------------|--------|--%%|
D|----------------|--------3--20---|----5---|--%%|
A|3---3--3--------|0---0--0--------|3-------|3-%%|
E|--------0---0--0|---------------3|--------|--%%|


You had a love... (1:07) [Verse 2]
G|--------|-----02------|--------|---------|
D|--------|---2---2-----|3-------|--tri----|
A|3---2---|0--------2---|----3---|3--------|
E|--------|-----tri-----|--------|--0123---|

G|----50-54-----54|2-------|--------|--%%%%%%|
D|----------------|--2-5-2-|3-------|--%%%%%%|
A|3---------------|--------|--------|3-%%%%%%|
E|----------------|--------|----3---|--%%%%%%|


Maybe the times we had... (1:19) [Prechorus 2]
G|----------|----------|--------------|tri--tri--|
D|tri--tri--|tri--tri--|tri----tri----|5555-5555-|
A|3333----5-|----------|-------3333--5|----------|
E|-----333--|5555-5555-|1111----------|----------|

G|----------|----------|----------|-----%%%|
D|tri--tri--|tri--tri--|tri--tri--|-----%%%|
A|3333------|----------|3333------|3---3%%%|
E|-----0000-|5555-1111-|-----3333-|-----%%%|


So you were born... (1:33) [Chorus 2]
G|--------|--------|--------|--------|--------|--------|------tri|-----%%%|
D|--------|------2-|--------|--------|--------|--------|----2-2--|-----%%%|
A|3-3-----|--2-3---|5-5-3-3-|----2-5-|3-3-----|--2-3---|3-5----03|3---3%%%|
E|----0-0-|5-------|--------|3-5-----|----0-0-|5-----1-|---------|-----%%%|


Horn Melody (1:47) [Bridge A]
G|------------2---|--------------------------------|
D|-----------2-2--|3-------2-----------------------|
A|3---2---------0-|----------------5---20--------0-|
E|--------5-------|-----------------------33-------|

G|----------------|--------------%%|
D|----------023-20|--023-20------%%|
A|3---------------|3-------3-----%%|
E|----0---5-------|------------3-%%|


Horn Dialogue continues (2:00) [Bridge B]
G|------------2---|--------------------------------|
D|-----------2-2--|3---3---2---2---0---------------|
A|3-3-----0-----0-|--------------------20----------|
E|----0-0---------|-----------------------33-----5-|

G|----------------------------2--4|5--------------%%|
D|----------------------2-3-2-----|----5------tri-%%|
A|3-----X---------0---------------|--------3------%%|
E|--------0-----0-----------------|-----------0123%%|


Horn solo (2:17) [Bridge C]
G|-%%%%%%-|-%%%%%%-|-%%%%%%-|-%%%%%%-|-%%%%%%-|-%%%%%%-|-%%%%%%-|-%%%%%%-|
D|-%%%%%%-|-%%%%%%-|-%%%%%%-|-%%%%%%-|-%%%%%%-|-%%%%%%-|-%%%%%%-|-%%%%%%-|
A|-%%%%%%-|-%%%%%%-|-%%%%%%-|-%%%%%%-|-%%%%%%-|-%%%%%%-|-%%%%%%-|-%%%%%%-|
E|-%%%%%%-|-%%%%%%-|-%%%%%%-|-%%%%%%-|-%%%%%%-|-%%%%%%-|-%%%%%%-|-%%%%%%-|


Rest of band reenters (2:26) [Interlude 2]
G|----------------|----------------|--------|--------|
D|----------------|----2---3--20--2|3-3-----|----5---|
A|3---3--3--------|----------------|----3-3-|--5---5-|
E|--------3---3--3|5---------------|--------|3-------|

G|----------------|----------------|--------|----%%%%|
D|----------------|--------3--20---|----5---|----%%%%|
A|3---3--3--------|0---0--0--------|3-------|3---%%%%|
E|--------0---0--0|---------------3|--------|----%%%%|


Yeah the times we had... (2:39) [Prechorus 3A]
G|----5---|--------|--------|2-------|--------|--------|--------|--------|
D|--25--53|2-------|------2-|--22----|--2-3-2-|--------|--------|--------|
A|3-------|--33----|0-2-33--|----3-0-|3-------|5-3-2-0-|--0-2-3-|2-3-0---|
E|--------|----3-0-|--------|--------|--------|--------|3-------|------3-|


This is the Alpha... (2:48) [Prechorus 3B]
G|---%%%%--|---%%%%--|--%%--%%|-------|--------|--------|--------|
D|---%%%%--|---%%%%--|--%%--%%|-------|--2-3-4-|5-3-2-0-|--------|
A|3--%%%%3-|2--%%%%2-|--%%--%%|---0-2-|3-------|--------|3-2-0---|
E|---%%%%--|---%%%%--|5-%%3-%%|1------|--------|--------|------3-|


So you were born... (2:57) [Chorus 3]
G|-%%%%%%-|--------|--------|-------tie-------|--------|--------|--------|--------|--------|
D|-%%%%%%-|--------|--------|-----0-2|2-0---0-|3-333333|2-222222|--------|--------|--------|
A|-%%%%%%-|3-333333|--------|0-003---|-0-03---|--------|--------|5-553-33|--------|3-333333|
E|-%%%%%%-|--------|0-000000|--------|--------|--------|--------|--------|5-553-3-|--------|

G|--------|--------|--------|--------|--------|--%%%%%%|
D|------02|3322----|--2-3-4-|5-3-2-0-|--------|--%%%%%%|
A|0-0023--|----5533|3-------|--------|3-3-3-3-|3-%%%%%%|
E|--------|--------|--------|--------|--------|--%%%%%%|


And someday soon, my friends... (3:16) [Outro A]
G|----------|----------|----------|----tripl-|--------|--------|--------|
D|----tripl-|----tripl-|----tripl-|3---3-2-0-|--------|--------|--------|
A|3---------|----------|----------|----------|3-------|--------|3-------|
E|----3-2-1-|0---7-0-7-|5---5-7-8-|----------|--------|3-------|--------|


Everybody solo! (3:28) [Outro B]
G|-----------------------------------------------||
D|Go-nuts!---------------------------------------||
A|----------------------Keep-going-nuts!---------||
E|-----------------------------------------------||
            
Submit corrections


        Somewhere In The Between lessons Hard to play? Try these video lessons and learn fast Somewhere In The Between lessons
        
↑ Back to top | Tablatures and chords for acoustic guitar and electric guitar, ukulele, drums are parodies/interpretations of the original songs. You may use it for private study, scholarship, research or language learning purposes only