» » »

Streetlight Manifesto - 1234 1234 Bass

Artists:  A B C D E F G H I J K L M N O P Q R S T U V W X Y Z # 

1234 1234 Bass

(ver. 1) Click to play this song!
Streetlight Manifesto
 Rating:
4/5 (8 votes)

 1234 1234 lessons Tabs too difficult? Try these video lessons and learn fast
 
                I've seen some really funky tabs for this song, so I decided to write one myself.  Listen for rhythm.


Guitar intro


Chorus

g--------------------------------------------------------|
d------5-----5-----5-------5-----------------------------|
a--3-3---3-3---3-3---3-3-3---------7-----7-----7-------7-|
e----------------------------5-5-5---5-5---5-5---5-5-5---|
                                                            Repeat
g--------------------------------------------------------|
d--------------------------------------------------------|
a------3-----3-----3-------3-------5-----5-----5-------5-|
e--1-1---1-1---1-1---1-1-1---1/3-3---3-3---3-3---3-3-3---|


Verse


g----------5-5-2-0-0-1-2-0--------------------|
d------5-------------------2-0----------------|
a--3-3---3---------------------3-0-0-2-3-2-0--|
e---------------------------------------------|
                                                 Repeat
g--------------------------------------------|
d--3-3-----3---2-0-------------5-5-3-2-0-----|
a------3-3---3-----3-0-----5-----------------|
e----------------------3-3---3---------------|

Lather, rinse, repeat.  That's the whole song.

AMFH
            
Submit corrections


        1234 1234 lessons Hard to play? Try these video lessons and learn fast 1234 1234 lessons
        
↑ Back to top | Tablatures and chords for acoustic guitar and electric guitar, ukulele, drums are parodies/interpretations of the original songs. You may use it for private study, scholarship, research or language learning purposes only