» » »

Streetlight Manifesto - A Moment Of Silence Bass

Artists:  A B C D E F G H I J K L M N O P Q R S T U V W X Y Z # 

A Moment Of Silence Bass

(ver. 1) Click to play this song!
Streetlight Manifesto
 Rating:
4.4/5 (7 votes)

 A Moment Of Silence lessons Tabs too difficult? Try these video lessons and learn fast
 
                Amazing song, I love the bass in this song, and damn near all their 
other songs!
He uses a 5 string with a low b, but I don't have that, so some of 
the parts are just subsituted with rests
its never anything more than a beat and it happens once or twice 
so its not even a big deal, just a heads up.

Tuning is standard, E A D G.

Horns until...

Intro, starts at 0:11
G|---------------------------------------------------------------------------------------|
D|------9--------5----7----------------5----4----------9--------5----7-------------------|
A|----7---7--3-3--3\5---5---7h8p7--3-3--3\2---2------7---7--3-3--3\5---5---7h8p7--3-33-2-|
E|-0~---------------------0----------------------0-~---------------------0---------------|

0:26-0:38
G|----------------------------------------------------10-9------------------------------|
D|------9--------5-----7---------------5----7-------9----------5----7-------------------|
A|----7---7--3-3---3\5---5---7h8p7-3-3--3\5---5---7--------3-3--3\5---5---7h8p7--3-33-2-|
E|-0~----------------------0--------------------0-----------------------0---------------|

0:39-0:51
G|----------------------|
D|----------------------|
A|--------------5----4--|
E|-00-7h8p7-3-3--3/2--2-|x4

0:52-1:02
G|----------------------------------------------------------------------|
D|----------4\5-5-4-2-0----------------------------4\5-5-4-5-7----------|
A|-7-7---7---------------7-7---7-5-5---5--7-7---7----------------3-33-2-|
E|-----7---------------------7-------5--------7----------------0--------|

1:03-1:07
G|-------9\12-----------------------------------|
D|---7\9-----------5----7------55h75-----5----7-|
A|-5-----------3-3--3\5---5--5-------3-3--3\5---|
E|----------------------------------------------|

1:08-1:14
G|--------------------------------|
D|-----9--------5-----7-----------|
A|---7---7--3-3---3\5------3-33-2-|
E|-0---------------------0--------|
   ^ ^ ^ ^
Staccato these notes  

1:15-1:32
G|--------------------------------------------------|
D|----------------9------5---7----------------------|
A|--------------7---7--3---5----787-3-2~------------|
E|-3-2-0-3-2--0--------------------------0--------0-|
              ^   ^ ^  ^ ^ ^ ^
            Staccato these notes

1:33-1:57
G|--------------------------------|
D|-----9------5------7---------4--|
A|-7-7--7-3-3--3-5-5--5-532-22--2-|
E|--------------------------------|x4

Rest a second then.

1:58-2:21
G|--------------------------------------------------------------------|
D|--------------------------------------------------------------------|
A|---33\10-10-10-10-10-9-7-9-7-5-5--33\10-10-10-10-9-7-9-7-5-5---5----|
E|-0-------------------------------0----------------------------5-5-0-|x2

Guitar interlude from 2:21-2:30

At 2:31 play
G|--------|
D|--------|
A|-3-33-2-|
E|--------|

2:33-2:44
G|----------------------------------------------------------|
D|----------------------------------------------------------|
A|-77--7--555--5--77--7--555--5--77-7--555-5--77--7--3-33-2-|
E|---7-------5------7-------5------7------5-----7-----------|

Quick rest, then.

2:48-3:00
G|-------9h10p9----------------------9h10p9----------------------9h10p9--------------------|
D|-----9------------5------7-------9------------5------7-------9-----------5-----7---------|
A|---7----------3-3--3\5-5--5----7----------3-3--3\5-5--5----7---------3-3--3\5-5--5--7~---|
E|-0---------------------------0---------------------------0-----------------------------3-|

G|--------|
D|--------|
A|-3-33-2-|
E|--------|

3:01-3:11
G|----------------------|
D|----------------------|
A|--------------5----4--|
E|-00-7h8p7-3-3--3/2--2-|x4

3:12-3:24
G|-------------------------------------------------------|
D|-------------------------------------------------------|
A|-7----------------7-------------7---------------3-33-2-|
E|---0-REST-545\7----0-REST-6h7p6---0-REST-547-0---------|

3:25-3:36
G|-------9\12-----------------------------------------7---------------------|
D|---7\9-----------5----7------55h75-----5----7-----7-------5----7----------|
A|-5-----------3-3--3\5---5--5-------3-3--3\5--5--5-----3-3--3\5-----3-33-2-|
E|-----------------------------------------------------------------0--------|
                                                  ^ ^ ^                                        
                                            Staccato these notes
3:37-3:53
G|----------------------------------------------|
D|------------9------5-----4--------------------|
A|---------77--7--33--3-22--2-3\2/3\5/3/2-------|
E|-0~--0~---------------------------------3/2-0-|

3:54-4:06
G|--------------------------------|
D|-----9------5------7---------4--|
A|-7-7--7-3-3--3-5-5--5-532-22--2-|
E|--------------------------------|x4


4:07-4:40
G|-------------------------------------------------------------||---------------------|
D|-------------------------------------------------------------||---------------------|
A|---33\10-10-10-10-10-9-7-9-7-5-5--33\10-10-10-10-9-7-9-7-5-5-||-3\7-5---------------|
E|-0-------------------------------0---------------------------|x2|-------7-5-7-5-3-0~--|
                                                                  Play this second time.

Guitar interlude from 4:41-4:51 then

4:52-4:53
G|--------|
D|--------|
A|-3-33-2-|
E|--------|

4:54-5:13
G|-------------------------------------------------|
D|-------------------------------------------------|
A|-7--5--5-7---5--5-7--5--5-7---3-33-2-------------|
E|--7--5----7---5----7--5-----7---------REST----0~-|
            
Submit corrections


        A Moment Of Silence lessons Hard to play? Try these video lessons and learn fast A Moment Of Silence lessons
        
↑ Back to top | Tablatures and chords for acoustic guitar and electric guitar, ukulele, drums are parodies/interpretations of the original songs. You may use it for private study, scholarship, research or language learning purposes only