» » »

Streetlight Manifesto - 1234 1234 Bass

Artists:  A B C D E F G H I J K L M N O P Q R S T U V W X Y Z # 

1234 1234 Bass

(ver. 3) Click to play this song!
Streetlight Manifesto
 Rating:
4/5 (4 votes)

 1234 1234 lessons Tabs too difficult? Try these video lessons and learn fast
 
                Intro (When Lyrics Start)
G---------------------------------------------------------|
D---------------------------------------------------------|
A3-33--3-33--320-00--0-00--0--------------0------------023|
E---------------------------31-11--1-11--1-3-33--3-33-----|

Hook Before Chorus
G---------------------------------------------------------|
D---------------------------------------------------------|
A--03-5-5b-3----------------------------------------------|
E-3-------------------------------------------------------|


Chorus
G----------------------------------------------------------------|
D----------------------------------------------------------------|
A333333333333332200000000000000----------------00--------------02|
E------------------------------3311111111111111--33333333333333--|
Repeat 2x per each Chorus

Verse
G---0-0-5542-0122-02---------------------------0-00-------|
D-------------------02------023-33--3-32-0----0----320----|
A3-3------------------0-2-3-------3--3----30-2--------3---| 
E-------------------------------------------3-------------|
Repeat 2x per Verse


-I know it is not perfect. But Hopefully It is helpful! Good Luck!
            
Submit corrections


        1234 1234 lessons Hard to play? Try these video lessons and learn fast 1234 1234 lessons
        
↑ Back to top | Tablatures and chords for acoustic guitar and electric guitar, ukulele, drums are parodies/interpretations of the original songs. You may use it for private study, scholarship, research or language learning purposes only