Home » S » Stevie Wonder »

Stevie Wonder - Sir Duke Bass

Artists:  A B C D E F G H I J K L M N O P Q R S T U V W X Y Z # 

Sir Duke Bass

(ver. 3) Click to play this song!
Stevie Wonder
this is a very hard song take note of the times you have to play the riffs by for the 
to be played 100% right

AND GOOD LUCK

intro  part should take not longer than :12
G|-9-11-9------------|
D|--------4-2-1------|
A|--------------4-2--|
E|-------------------|

verse    part should take not longer than :25
G|-----4-----|----------|-----------|--------------|-----------|
D|---4---4---|----6-----|-----5-----|----4---2-1---|---4---4---|
A|-2-------2—|--6---6---|---5---5---|--4---------4-|-2-------2-|
E|-----------|4-------4-|-3-------3-|2-------------|-----------|

G|----------|-----------|--------------|
D|----6-----|-----5-----|----4-3-------|
A|--6---6---|---5---5---|--4-----------|
E|4-------4-|—3-------3-|2-------------|

p-chorus  part should take not longer than :17
G|-------------------------|-------------------------|
D|-------------------------|-------------------------|
A|7-7-6-6-5-5-4-4-5-5-6-6-7|7-7-6-6-5-5-4-4-5-6-7-8-9|
E|-------------------------|-------------------------|

chorus  part should take not longer than   :27
G|------x4------|---x1-x5------|-------------|------------------|
D|----x4---x4---|—3-------x6---|---9---------|-----x-2-3-4-4----|
A|-x2---------2-|------------8-|-7---7-----6-|-4-4--------------|
E|--------------|--------------|-------------|----------------2-|

G|------x4------|---x1-x5------|-------------|------------------|
D|----x4---x4---|-3-------x6---|---9---------|-----x-2-3-4-4----|
A|-x2---------2-|------------8-|-7---7-----6-|-4-4--------------|
E|--------------|--------------|-------------|----------------2-|

solo play fast   part should take not longer than :30
|-----------------------------|-------------------16-18-19-20-|
|-----------------------------|-------------16-18-------------|
|-------------x11-9---16------|-14-16-17-18-------------------|
|-7--x11-9--------------14-16-|-------------------------------|

|-13----11---------|---------------------|
|----13----11——13--|-11-9------11-9----9-|
|------------------|------11-9------11---|
|------------------|_--------------------|

|---------------------------|----------------------------|
|-13-11-9-11-9----9---------|----------------------------|
|--------------11---11-9-11-|-9----9---------------------|
|---------------------------|---11---11-9-11-9-7-9-7-4-2-|

|—-----------1-4-1---4-|-1---1------------|
|---------1-4----------|---4---4-1-4--4-4-|
|-----2—4--------------|------------------|
|-2-4------------------|------------------|
            
Submit corrections

↑ Back to top | Tablatures and chords for acoustic guitar and electric guitar, ukulele, drums are parodies/interpretations of the original songs. You may use it for private study, scholarship, research or language learning purposes only