Home » S » Stevie Wonder »

Stevie Wonder - I Just Called To Say I Love You Bass

Artists:  A B C D E F G H I J K L M N O P Q R S T U V W X Y Z # 

I Just Called To Say I Love You Bass

(ver. 1) Click to play this song!
Stevie Wonder
I Just Called To Say I Love You
Written and  original recording by Stevie Wonder.
Song released in August 1984 and apart for the Danish
charts a number 1 all over the world and the only UK
number I to date for Stevie Wonder
Have fun

Intro:
G|-------------------------------------|
D|------4h6-4h6-------------4h6--4h6---|
A|-4---4-------4---4---4---4---------4-|
E|------------------4-4----------------|

Verse:
G|---------------------------------------------------------------|
D|------4h6-4h6-------------4h6-4h6-------------4h6-4h6----------|
A|-4---4-------4---4---4---4-------4---4---4---4-------4---4-----|
E|------------------4-4-----------------4-4-----------------4-4--|

G|--------------8-8-------------------------------------------|
D|------6h8-6h8-----------------------------------------------|
A|-6---6-----------------6---6-------6---6-------6---6--------|
E|------------------6-6-------4h6-4h6-----4h6-4h6-----4h6-4h6-|

G|------------------------------------------------|
D|-----------------------------6-6------4h6-4h6---|
A|-6---6-------6---6---------------4---4--------4-|
E|------4h6-4h6-----6-6---4---4-------------------|

Repeat Verse:

Chorus 1:
G|------8------------------------------------------------------------|
D|-----8------6-6------4h6-4h6-----4h6------------6----------------8-|
A|-6--6-----------4---4-------4---4-----6-6-6---------------6h8-6h8--|
E|-------4--4-------------------------4----6--4--4--4--6---6---------|

G|----------------------------------------------------------|
D|------------------6-6---------------8-----------------6---|
A|------6-6--6----------------6h8-6h8--------6-6-6----------|
E|-666-----6----4--4----6---6------------666----6---4--4--4-|

G|------------------|
D|------4h6-4h6-----|
A|-4---4--------4---|
E|------------------|

Repeat Verse x2:

Chorus 2 - 1st Key Change:
G|------9------------------------------------------------------------|
D|-----9------7-7------5h7-5h7-----5h7------------7----------------9-|
A|-7--7-----------5---5-------5---5-----7-7-7---------------7h9-7h9--|
E|-------5--5-------------------------5----7--5--5--5--7---7---------|

G|---------------------------------------------------------|
D|------------------7-7---------------9----------------7---|
A|------7-7--7----------------7h9-7h9-------7-7-7----------|
E|-777-----7---5--5-----7---7-----------777----7---5--5--5-|

G|------------------|
D|------5h7-5h7-----|
A|-5---5--------5---|
E|------------------|

Chorus 3 - 2nd Key Change:
G|-------10-----------------------------------------------------------|
D|-----10------8-8-----6h8-6h8-----6h8------------8----------------10-|
A|-8--8-----------6---6-------6---6-----8-8-8-------------8h10-8h10---|
E|---------6--6-----------------------6----8--6--6--6--8-8------------|

G|-------------------------------------------------------------|
D|-----------------8-8-----------------10-----------------8----|
A|------8-8--8----------------8h10-8h10--------8-8--8----------|
E|-888-----8---6--6------8---8------------888-----8---6--6--6--|

Outro:
G|----------------------------------------|
D|-----8----------4---------6-6-------6-6-|
A|-6--6--6-4-2--2--2---4---4-----4---4----|
E-----------------------------------------|

G|-----------------------------------------|
D|------8-8------------------8-8-----------|
A|-6---6-----6---6------6---6------6---666-|
E|----------------6-6----------------------|
            
Submit corrections

↑ Back to top | Tablatures and chords for acoustic guitar and electric guitar, ukulele, drums are parodies/interpretations of the original songs. You may use it for private study, scholarship, research or language learning purposes only