Home » S » Stevie Wonder »

Stevie Wonder - My Cherie Amour Tabs

Artists:  A B C D E F G H I J K L M N O P Q R S T U V W X Y Z # 

My Cherie Amour Tabs

(ver. 3) Click to play this song!
Stevie Wonder
My Cherie Amour
Stevie Wonder


Intro
E|-----------------|---------------------|
B|-------4h6-4-----|-------4h6-4-----4h6-|
G|-----3-------6-3-|-----3---------3-----|
D|-5h6-------------|-5h6---------6-------|
A|-----------------|---------------------|
E|-----------------|---------------------|

         Gbmaj7   Bmaj7             C#maj7 
E|------------------|------------------|
B|-------2--2--2--4-|4--4--4--4--4--6--|
G|-------3--3--3--3-|3--3--3--3--3--5--|
D|-------3--3--3--4-|4--4--4--4--4--6--|
A|----------------2-|------2--------4--|
E|-------2----------|------------------|
   la la la la la la la la la la la la

   Ab7+5       C#maj7              C#m7                 Bmaj7                
E|-8--8-------|-------------------|--------------------|--------------------|
B|-7--7-------|6--6------6------6-|5--5-------5-----5--|4--4--------4-------|
G|-9--9-------|5--5------5------5-|4--4-------4-----4--|3--3--------3-------|
D|-6--6-------|6--6------6------6-|6--6-------6-----6--|4--4--------4-------|
A|------------|4-----4--4----4----|4----4--4-----4-----|2-----2--2----------|
E|------------|-------------------|--------------------|--------------------|
       My Che  rie    Amour        lovely as a summer's day

  Ab7sus4 Ab7      C#maj7              C#m7                 Bmaj7
E|----------------|-------------------|--------------------|----------------|
B|-4--4---4-------|6--6------6------6-|5--5-------5-----5--|4-4-------4-----|
G|-6--6---5-------|5--5------5------5-|4--4-------4-----4--|3-3-------3-----|
D|-4--4---4-------|6--6------6------6-|6--6-------6-----6--|4-4-------4-----|
A|----------------|4-----4-4----4-----|4----4--4-----4-----|2----2-2--------|
E|-4------4-------|-------------------|--------------------|----------------|
            My Che rie    Amour        distant as the milky way

  Ab7sus4 Ab7      Gbmaj7        Ab13                   Fm7
E|----------------|-------------|----------------------|--------------------|
B|-4--4---4-------|2-2-----2---2|6--5--------6-------6-|---1--------1-------|
G|-6--6---5-------|3-3-----3---3|5--5--------5-------5-|---1--------1-------|
D|-4--4---4-------|3-3-----3---3|4--4--------4-------4-|---1--------1-------|
A|----------------|-------------|----------------------|--------------------|
E|-4------4-------|2---2-2---2--|4-----4--4-----4------|1-----1--1----------|
            My Che rie    Amour  pretty little one that I adore    

  Bb9                      Eb9     
E|1--1----------1-------1|----6--------6-----6-|
B|1--1----------1-------1|----6--------6-----6-|
G|1--1----------1-------1|----6--------6-----6-|
D|-----------------------|---------------------|
A|1------1--1------1-----|-6-----6--6-----6----|
E|-----------------------|---------------------|
  You're the only girl my  heart beats for

   Ab13                     C#maj7
E|-------------------------|---------------|
B|-6--6--------6-----6-----|6--6-----6--6--|
G|-5--5--------5-----5-----|5--5-----5--5--|
D|-4--4--------4-----4-----|6--6-----6--6--|
A|-------------------------|4--4--4-----4--|
E|-4-----4--4-----4--------|---------------|
   How I wish that you were mine

   Ab7+5      C#maj7              C#m7                 Bmaj7                
E|-8----|-------------------|-------------------------|--------------------|
B|-7----|6--6------6------6-|5--5-------5-----5-------|4--4--------4-------|
G|-9----|5--5------5------5-|4--4-------4-----4-------|3--3--------3-------|
D|-6----|6--6------6------6-|6--6-------6-----6-------|4--4--------4-------|
A|------|4-----4--4----4----|4----4--4-----4----------|2-----2--2----------|
E|------|-------------------|-------------------------|--------------------|
   In a  Cafe                or sometimes on a crowded street  

  Ab7sus4 Ab7      C#maj7              C#m7                 Bmaj7
E|---------------|-------------------|--------------------|----------------|
B|-4--4--4-------|6--6------6------6-|5--5-------5-----5--|4-4-------4-----|
G|-6--6--5-------|5--5------5------5-|4--4-------4-----4--|3-3-------3-----|
D|-4--4--4-------|6--6------6------6-|6--6-------6-----6--|4-4-------4-----|
A|---------------|4-----4-4----4-----|4----4--4-----4-----|2----2-2--------|
E|-4-----4-------|-------------------|--------------------|----------------|
        I've been near you but        you never noticed    me

  Ab7sus4 Ab7      Gbmaj7        Ab13                   Fm7
E|--------------|-------------|------------------------|--------------------|
B|-4--4---4-----|2-2-----2---2|6--5--------6-------6---|---1--------1-------|
G|-6--6---5-----|3-3-----3---3|5--5--------5-------5---|---1--------1-------|
D|-4--4---4-----|3-3-----3---3|4--4--------4-------4---|---1--------1-------|
A|--------------|-------------|------------------------|--------------------|
E|-4------4-----|2---2-2---2--|4-----4--4-----4--------|1-----1--1----------|
          My Che rie Amour     won't you tell how could you ignore

  Bb9                      Eb9     
E|1--1----------1-------1|----6--------6-----6-|
B|1--1----------1-------1|----6--------6-----6-|
G|1--1----------1-------1|----6--------6-----6-|
D|-----------------------|---------------------|
A|1------1--1------1-----|-6-----6--6-----6----|
E|-----------------------|---------------------|
  That behind that little  smile I wore

   Ab13                     C#maj7
E|-------------------------|---------------|
B|-6--6--------6-----6-----|6--6-----6--6--|
G|-5--5--------5-----5-----|5--5-----5--5--|
D|-4--4--------4-----4-----|6--6-----6--6--|
A|-------------------------|4--4--4-----4--|
E|-4-----4--4-----4--------|---------------|
   How I wish that you were mine

         Gbmaj7   Bmaj7             C#maj7 
E|------------------|------------------|
B|-------2--2--2--4-|4--4--4--4--4--6--|
G|-------3--3--3--3-|3--3--3--3--3--5--|
D|-------3--3--3--4-|4--4--4--4--4--6--|       2x
A|----------------2-|------2--------4--|
E|-------2----------|------------------|    
   la la la la la la la la la la la la

overtone
   A7+5        Dmaj7               Dm7                  Cmaj7                
E|-9--9-------|-------------------|--------------------|--------------------|
B|-8--8-------|7--7------7------7-|6--6-------6-----6--|5--5--------5-------|
G|-10-10------|6--6------6------6-|6--5-------5-----5--|4--4--------4-------|
D|-7--7-------|7--7------7------7-|7--7-------7-----7--|5--5--------5-------|
A|------------|5-----5--5----5----|5----5--5-----5-----|3-----3--3----------|
E|------------|-------------------|--------------------|--------------------|
       Maybe   someday             you'll see my face a mong the crowd

  A7sus4  A7      Dmaj7               Dm7                    Cmaj7
E|--------------|-------------------|----------------------|----------------|
B|-5--5---5-----|7--7------7------7-|6--6-------6-----6----|5-5-------5-----|
G|-7--7---6-----|6--6------6------6-|5--5-------5-----5----|4-4-------4-----|
D|-5--5---5-----|7--7------7------7-|7--7-------7-----7----|5-5-------5-----|
A|--------------|5-----5-5----5-----|5----5--5-----5-------|3----3-3--------|
E|-5------5-----|-------------------|----------------------|----------------|
           Maybe  someday            I'll share your little distant cloud

  A7sus4  A7       Gmaj7         A13                    F#m7
E|----------------|-------------|----------------------|--------------------|
B|-5--5---5-------|3-3-----3---3|7--7--------7-------7-|---2--------2-------|
G|-7--7---6-------|4-4-----4---4|6--6--------6-------6-|---2--------2-------|
D|-5--5---5-------|4-4-----4---4|5--5--------5-------5-|---2--------2-------|
A|----------------|-------------|----------------------|--------------------|
E|-5------5-------|3---3-3---3--|5-----5--5-----5------|2-----2--2----------|
            Oh Che rie    Amour  pretty little one that I adore    

  B9                      E9     
E|2--2----------2-------2|----7--------7-----7-|
B|2--2----------2-------2|----7--------7-----7-|
G|2--2----------2-------2|----7--------7-----7-|
D|-----------------------|---------------------|
A|2------2--2------2-----|-7-----7--7-----7----|
E|-----------------------|---------------------|
  You're the only girl my  heart beats for

   A13                      Dmaj7
E|-------------------------|---------------|
B|-7--7--------7-----7-----|7--7-----7--7--|
G|-6--6--------6-----6-----|6--6-----6--6--|
D|-5--5--------5-----5-----|7--7-----7--7--|
A|-------------------------|5--5--5-----5--|
E|-5-----5--5-----5--------|---------------|
   How I wish that you were mine

         Gmaj7   Cmaj7              Dmaj7 
E|------------------|------------------|
B|-------3--3--3--5-|5--5--5--5--5--7--|
G|-------4--4--4--4-|4--4--4--4--4--6--|
D|-------4--4--4--5-|5--5--5--5--5--7--|       2x
A|----------------3-|------3--------5--|
E|-------3----------|------------------|    
   la la la la la la la la la la la la
            
Submit corrections

↑ Back to top | Tablatures and chords for acoustic guitar and electric guitar, ukulele, drums are parodies/interpretations of the original songs. You may use it for private study, scholarship, research or language learning purposes only