» » »

Stevie Ray Vaughan - Voodoo Chile Tabs

Artists:  A B C D E F G H I J K L M N O P Q R S T U V W X Y Z # 

Voodoo Chile Tabs

(ver. 3) Click to play this song!
Stevie Ray Vaughan
 Rating:
4/5 (4 votes)

 Voodoo Chile lessons Tabs too difficult? Try these video lessons and learn fast
 
                e|-----------------------------|
b|-----------------------------|
g|-----11-13-13b-13-11----11~--|
d|-/13-----------------13------|
a|-----------------------------|
e|-----------------------------|

e|-------------------------------------------|
b|-------------------------------------------|
g|-------------------------------------------|
d|-13-11----------------------11h13p11h13p11-|
a|-------13-12-11h12p11----------------------|
e|----------------------14-11----------------|

e|---------------------------------|
b|---------------------------------|
g|-------11-13-13b-11-13b-11-------|
d|-13-13---------------------13-11-|
a|---------------------------------|
e|---------------------------------|

e|---------------------------------------|
b|--14-----------------------------------|
g|-----13b-11--13------------------------|
d|----------------13--11-----11----------|
a|-----------------------11-----11--11---|
e|------------------------------------14-|

e|----------------------------------|
b|-------------------14-------------|
g|-------------11----14-11----11----|
d|-------11----------------13-------|
a|----------------------------------|
e|-14-14----14----14----------------|

e|-----------------11--------|
b|--------------11----13-----|
g|-----------11-------13-----|
d|--------13-------------13--|
a|-----13--------------------|
e|11-------------------------| 

e|--------------------------------|
b|--------------------13-11-------|
g|--------------------13-11-------|
d|--------11-13-------------13-11-|
a|--------------------------------|
e|-11-11--------11-11-------------|

e|-----------------11--------|
b|--------------11-----13----|
g|-----------11--------13----|
d|--------13--------------13-|
a|-----13--------------------|
e|-11------------------------|

e|-------------------------------|
b|-------------------------------|
g|-------------------11----------|
d|-13-13-11-13-13-13----13-11-13-|
a|-------------------------------|
e|-------------------------------|

e|------------------11-----------------|
b|---------------11-----13-------------|
g|------------11--------13-------------|
d|---------13--------------13----------|
a|------13-----------------------------|
e|--11------------------------11-11-11-|

e|-----------------------------------|
b|--------------------14b------------|
g|-11-13-13b-13-11--------11---------|
d|-----------------13---------13-11--|
a|-----------------------------------|
e|-----------------------------------|

e|-------------------------------------------------|
b|-------------------------------------------------|
g|-------------------------------------------------|
d|-11----------------------11-13-11----------------|
a|----13-12-11h12p11----------------13-12-11-------|
e|-------------------14-11-------------------14-11-|

e|-----------------------------------------|
b|-----------------------------------------|
g|-11-13--11------------11-----11----------|
d|-----------13--11-13-----13-----13-11-13-|
a|-----------------------------------------|
e|-----------------------------------------|

e|----------------------------------------------|
b|----------13-----------11----------------13-11|
g|----------13-----------11----------------13-11|
d|-13-13-13----13--13-13----13-13-11-13-13------|
a|----------------------------------------------|
e|----------------------------------------------|

e|----------------11---------------------------------|
b|----------------11-14-11---------------------------|
g|-13-11-------------14-11--------------13-11--------|
d|-------13-11-------------13-11--13-11-------13-11--|
a|-------------13------------------------------------|
e|---------------------------------------------------|

Good luck! rock on! have fun!
            
Submit corrections


        Voodoo Chile lessons Hard to play? Try these video lessons and learn fast Voodoo Chile lessons
        
↑ Back to top | Tablatures and chords for acoustic guitar and electric guitar, ukulele, drums are parodies/interpretations of the original songs. You may use it for private study, scholarship, research or language learning purposes only