» » »

Stevie Ray Vaughan - So Excited Tabs

Artists:  A B C D E F G H I J K L M N O P Q R S T U V W X Y Z # 

So Excited Tabs

(ver. 3) Click to play this song!
Stevie Ray Vaughan
 Rating:
4/5 (4 votes)

 So Excited lessons Tabs too difficult? Try these video lessons and learn fast
 
                ««««  Please take a moment and rate my sheet music   »»»» 
 
Questions/Comments?      

Please feel free to send me a message here on my profile 
-User name- NMKeith74
Also be sure to look for my other Tab listings. 
Enjoy the tabs, have fun and play hard. 


My Playing Guide
_________________________________
                                 |
/ sl. (slide up)                 |
\ sl. (slide down)               | 
H, h  (hammer-on)                | 
P, p  (pull-off)                 | 
B, b (bend) ¼ ½ or 1 step        |
V~  (vibrato)                    | 
+  (harmonic)                    |
PM,  (Palm mute)                 |
x (pick scr*pe)                  |
_________________________________|

Tune Guitar down ½ step

Lively Blues Shuffle (=124)

       H                                              
|------------------------------------|
|------------------------------------|
|---------------5----5--7------5-----|
|-----5^7----7-----------------------|
|------------------------------------|
|------------------------------------|	


                                                                           1                      
|---------------------------5-----------------------|
|---------------------------5-----------------------|
|-7^b-----------------------------------------------|
|---------------------------------------------------|
|---------------------------------------------------|
|---------------------------------------------------|	


                    1                 ¼                  
|---------------------------------------------------|
|---------------------------------------------------|
|--------------0---7^b-------7 (7)---5^b------------|
|--------------0---------------------------7----5---|
|---------------------------------------------------|
|---------------------------------------------------|	


                                       H H             
|---------------------------------------------------|
|-----------------------------------------------5---|
|---------------------------------5-------------5---|
|---------7-------7-----7---5-----5---5^5^6---------|
|---------------------------------------------------|
|-------------5-------------------------------------|	


                                      P        
|---------------------------------------------------|
|---------------------------------------------------|
|------------------------5-----5-----7^5------------|
|----------------7----7-----------------------------|
|---------------------------------------------------|
|-----5------5--------------------------------------|	


   1                                              1    
|--------------------5------------------------------|
|--------------------5--------------------------5^b-|
|-7^b-------------------------------------------7^b-|
|---------------------------------------------------|
|---------------------------------------------------|
|---------------------------------------------------|


     1      1                                        
|--------------5------------------------------------|
|-(5)^b---------------------------------------------|
|-(7)------7^b-----7--(7)----5----------------------|
|-------------------------------7--------5----------|
|---------------------------------------------------|
|---------------------------------------------------|	


   sl.                         H H                        
|---------------------------------------------------|
|-------------------------------------------5-------|
|-------------------------5-----------------5-------|
|-7\----7------7--5-------5-------------------------|
|---\-------------------------5^6^7-----------------|
|----\0---------------------------------------------|	


                             P                       
|---------------------------------------------------|
|---------------------------------------------------|
|-----------------5----5----7^5---------------------|
|---------7----7------------------------------------|
|---------------------------------------------------|
|-5----5--------------------------------------------|	


   1                  ½        P                          
|----------------5----------------------------------|
|----------------5----------------------------------|
|-7^b----------------7^b----(7)^5----------5--------|
|------------------------------------------5--------|
|---------------------------------------------------|
|---------------------------------------------------|


      1             ½                                    
|------------5--------------------------------------|
|------------5--------------------------------------|
|----7^b-----------7^b----7----5-----------0--------|
|------------------------------------------0--------|
|---------------------------------------------------|
|---------------------------------------------------|	


      1     P              1       P                  
|---------------------------------------------------|
|-------------5-------------------------------------|
|----7^b--(7)^5-------0---7^b---(7)^5---------5-----|
|-----------------x---0-----------------x-----------|
|---------------------0-----------------x-----------|
|---------------------------------------------------|	


        1                         ¼        P            
|---------------------------------------------------|
|-----------------0---------------------------------|
|------7^b--------0--------------5^b------7^5-------|
|----------------------7------7---------------------|
|---------------------------------------------------|
|---------------------------------------------------|	


        1        1            v~~~~~~~~~~~~~~~~~~~~                          
|---------------------------------------------------|
|--------------------8-------(8)--------------------|
|------7^b------7^b----------(7)--------------------|
|---------------------------------------------------|
|---------------------------------------------------|
|---------------------------------------------------|	


                           1     1         
|---------------------------------------------------|
|---------------------------------------------------|
|---------------------0---7^b---7^b---------7-------|
|---------------------0-----------------------------|
|---------------------------------------------------|
|---------------------------------------------------|

   V~~~~~	
      P      1               ¼            P       P      
|----------------------5----------5--------5--------|
|------------------5--------8^b------5-----5--------|
|----5^0----7^b--------------------------7^0-----8^-|
|---------------------------------------------------|
|---------------------------------------------------|
|---------------------------------------------------|	


   P               H 1                                  
|---------------------------------------5---5-------|
|---------------------------------------5---5-------|
|-7^5-------------5^7^b-----------------------------|
|----------7----------------------------------------|
|---------------------------------------------------|
|---------------------------------------------------|	


  1 v~~~~~~ w/ bar ~~~~~~~~~~~~~~~~~~~~~~~~~~~~~~~~~
                                                  
|---------------------------------------------------|
|---------------------8-----------------(8)---------|
|-7^b-----------------------------------(7)---------|
|---------------------------------------------------|
|---------------------------------------------------|
|---------------------------------------------------|	


v~~~~~~~~~~~                           v~~~~~~~~~~~~               
|----------x----------------------------------------|
|---(8)------x--------------------------------------|
|---(7)---------7----(7)------7------5--------------|
|---------------------------------------------------|
|---------------------------------------------------|
|---------------------------------------------------|	


           sl. sl.                   
|---------------------------------------------------|
|-------x------------------------7------------------|
|-------x------------------------7---------7--------|
|-------------0-------------------------------------|
|-------------0-------------------------------------|
|----------12\0/5---5---5---------------------------|	

    v~~~~
      P        1                         ½                  
|----------------------------------5----------------|
|----5-------------------------5--------8^b---------|
|----5^0------7^b-----------------------------------|
|---------------------------------------------------|
|---------------------------------------------------|
|---------------------------------------------------|	


   H        P P        v~~~         ¼                       
|-5^7--7---7^6^5------------------------------5-----|
|------------------8--5------(5)----------5---------|
|----------------------------(0)---7^b--------------|
|---------------------------------------------------|
|---------------------------------------------------|
|---------------------------------------------------|	


       1                          1       P            
|---------------------5---3---5---------------------|
|--5--8^b---------------------5---------------------|
|--------------------------------7^b---(9)^5--------|
|---------------------------------------------7---5-|
|---------------------------------------------------|
|---------------------------------------------------|	


  v~~~~~~    1              H    ½        P                    
|------------------5--5-----------------------------|
|------------------5--5----8^5----------------------|
|-----------7^b-----------------7^b----(7)^5--------|
|-7-------------------------------------------------|
|---------0--------------------------------------7--|
|---------------------------------------------------|	


  v~~~~~  rake
|----------5-)--------------------------------------|
|-----------5-)-------------------------------------|
|-5----------5-)------------------------------------|
|-------------5-)----------5---5----6------7--------|
|-----------------7----7----------------------------|
|---------------------------------------------------|	


                                   H  H    rake           
|-------------------------------------------5)------|
|--------------------------------------------5)-----|
|----------------------------5----------------5)----|
|---------0---7------7---5---5----------------------|
|---------0-----------------------5^6^7-------------|
|----5----------------------------------------------|	



|-------------------------------------------5-------|
|-------------------------------------------5-------|
|-------------------------------------------5-------|
|---------------7------7--5------5--7---------------|
|-----------------------------------0---------------|
|-----5---(5)---------------------------------------|	


                                      H  H   rake
|--------------------------------------------5)-----|
|---------------------------------------------5)----|
|--------------------------------5-------------5)---|
|---------------7------7--5------5------------------|
|------------------------------------5^6^7----------|
|-----5---5-----------------------------------------|


|---------------------------------------------------|
|---------------------------------------------------|
|--------------------------------5-------------5----|
|---------x-----7------7--5------5------------------|
|---------x--------------------------5^6^7----------|
|---------------------------------------------------|


 PM~~~~~                   ¼           rake                  
|--------------------------------------5)-----------|
|---------------------------------------5)----------|
|--------------------5----5^b------------5)---------|
|-----------7----7---------------7--------5)--------|
|---------------------------------------------------|
|--5----5-------------------------------------------|	


Repeat
            
Submit corrections


        So Excited lessons Hard to play? Try these video lessons and learn fast So Excited lessons
        
↑ Back to top | Tablatures and chords for acoustic guitar and electric guitar, ukulele, drums are parodies/interpretations of the original songs. You may use it for private study, scholarship, research or language learning purposes only