Home » S » Steve Miller Band »

Steve Miller Band - Joker Tabs

Artists:  A B C D E F G H I J K L M N O P Q R S T U V W X Y Z # 

Joker Tabs

(ver. 3) Click to play this song!
Steve Miller Band
Steve miller band 
The joker
Good song!

verse
e--------------------------------------------------------
b--------------------------------------------------------
g--------------------------------------------------------
d--------------0h2-0-0-----------------------------------
a------0h2-3-3---------0h2-3-3-3-3--2-2-2-2--------------
e--3-3---------------------------------------------------
some people call me the space cowboy
e--------------------------------------------------------
b--------------------------------------------------------
g------------------------------------0-0-----------------
d------------0h2-0-0-------------0h2---------------------
a-----0h2-3-3--------0h2-3-3-3-3-------------------------
e--3-3---------------------------------------------------
some people call me the gangster of love

For the woot woo bit just slide up and down the e an b strings

Chorus
            G              Cadd9
Cause im a joker an im a smoker
        G          Cadd9
Im a midnight toker 
   G        Cadd9       D
I play my music in the sun
            G            Cadd9
Cause im a lover an im ……………
      G            Cadd9
Im a ………………………………………………………………
   G             Cadd9        D
………………………………………………………………………

That’s bout it apart from solo which im working on so I’ll add it soon.

adios
            
Submit corrections

↑ Back to top | Tablatures and chords for acoustic guitar and electric guitar, ukulele, drums are parodies/interpretations of the original songs. You may use it for private study, scholarship, research or language learning purposes only