Home » S » Steve Miller Band »

Steve Miller Band - Abracadabra Bass

Artists:  A B C D E F G H I J K L M N O P Q R S T U V W X Y Z # 

Abracadabra Bass

(ver. 1) Click to play this song!
Steve Miller Band
 Rating:
4.2/5 (5 votes)
                Abracadabra by Steve Miller Band

Bass


Riff #1  x2
G|-----------------|-----------------|-----------------|-----------------|---|
D|-----------------|-----------------|-----------------|-----------------|---|
A|-------7---------|---7-------------|-------7---------|-----------------|---|
E|---5-8-----------|-----8-5---------|---5-8---------3-|-4-4-3-4-----0---|-5-|


Riff #2  x3
G|---------------|-----------------|-----------------|-----------------|---|
D|---------------|------7----------|-----------------|-----------------|---|
A|-----7---------|-5-8-------------|-------2---------|-------7---------|---|
E|-5-8-----------|-----------------|---0-4-----------|---5-8-------0---|-5-|

Riff #3
G|---------------|-------------7\--|-----------------|-----------------|---|
D|---------------|-------7---------|-----------------|-----------------|---|
A|-----7---------|---5-8-----------|-----------------|-----------------|---|
E|-5-8-----------|-----------------|-0-0(0)0-0(0)0-0-|(0)0-0(0)0-0(0)--|-5-|

Riff #2 5x

Riff #4 1x
G|---------------|-------------7\--|-----------------|-----------------|---|
D|---------------|-------7---------|-----------------|-----------------|---|
A|-----7---------|---5-8-----------|-------2---------|-------7---------|---|
E|-5-8-----------|-----------------|-0-0-4-----------|---5-8-------0---|-5-|

Riff #2 1x
Riff #4 1x
Riff #2 1x
Riff #4 1x
Riff #2 3x
Riff #3 1x
Riff #2 3x
Riff #3 1x
Riff #1 2x

Riff #5 2x
G|---------------|-----------------|-----------------|-----------------|
D|---------------|-----------------|-----------------|-----------------|
A|-----7---------|---7-------------|-------7---------|-----------------|
E|-5-8-----------|-----8-5---------|---5-8---------3-|-4-4-3-4-----0---|

Riff #6 x8

   x2 (1st and 3rd time only)
  _________________
 /                 \
G|-----------------|-----------------|
D|-----------------|-----------------|
A|-0-0-0-0-0-0-0-0-|-0-0-0-0-0-0-0-34|
E|-----------------|-----------------|


Riff #7 x1

G|-----------------|
D|-----------------|
A|-0-0-0-0-0-0-0-00|
E|-----------------|


Riff #8 x19
G|-----------------|
D|-----------------|
A|-0-0(0)--------00|
E|-----------------|


Riff #9 x1
G|---------------5-|---------9-------|
D|-----------------|-----------------|
A|-0-0(0)----------|-2-2(2)------2---|
E|-----------------|-----------------|


At the end of the song, there's this little bit.

G|------|-------------------------|
D|-13b--|-------------------------|
A|-13b--|-14/15---12/13-----------|
E|------|-14/15---12/13-----------|

Lyrics:

I heat up, I can't cool down
You got me spinnin'
'Round and 'round
'Round and 'round and 'round it goes
Where it stops nobody knows

Every time you call my name
I heat up like a burnin' flame
Burnin' flame full of desire
Kiss me baby, let the fire get higher

Abra-abra-cadabra
I want to reach out and grab ya
Abra-abra-cadabra

You make me hot, you make me sigh
You make me laugh, you make me cry
Keep me burnin' for your love
With the touch of a velvet glove

Abra-abra-cadabra
I want to reach out and grab ya
Abra-abra-cadabra

I feel the magic in your caress
I feel magic when I touch your dress
Silk and satin, leather and lace
Black panties with an angel's face

I see magic in your eyes
I hear the magic in your sighs
Just when I think I'm gonna get away
I hear those words that you always say

Abra-abra-cadabra
I want to reach out and grab ya
Abra-abra-cadabra

Every time you call my name
I heat up like a burnin' flame
Burnin' flame full of desire
Kiss me baby, let the fire get higher

I heat up, I can't cool down
My situation goes 'round and 'round
I heat up, I can't cool down
My situation goes 'round and 'round
I heat up, I can't cool down
My situation goes 'round and 'round
            
Submit corrections

↑ Back to top | Tablatures and chords for acoustic guitar and electric guitar, ukulele, drums are parodies/interpretations of the original songs. You may use it for private study, scholarship, research or language learning purposes only