Home » S » Steve Miller Band »

Steve Miller Band - Space Cowboy Bass

Artists:  A B C D E F G H I J K L M N O P Q R S T U V W X Y Z # 

Space Cowboy Bass

(ver. 2) Click to play this song!
Steve Miller Band
Space Cowboy

*Like a lot of bass tabs, this one is pretty simple, so don't worry. Also, this song was 
with fingers, not picks, so if you want sort of the exact sound, play with your fingers.

Bass: Standard Tuning


Intro|
-----

G|--------------------------|
D|--------------------------|
A|-7-7--7-7--7-7--7-7--7-7--|
E|-0-0--0-0--0-0--0-0--0-0--|


Verse|
-----

G|---------------------|
D|-----------------0-3-|
A|---------0-1-1-1-----|
E|-1-1-1-3-------------|


Chorus|
------

G|----------------------------------|
D|----------------------------------|
A|-0-0-0-0-1-1-1-1-2-2-2-2-4-4-4-4--|
E|----------------------------------|

Interlude|
---------
                  Then->
G|-------------            G|--------------------------|
D|---------0-3-            D|--------------------------|
A|-----0-1-----            A|-7-7--7-7--7-7--7-7--7-7--|
E|-1-3---------            E|-0-0--0-0--0-0--0-0--0-0--|


Solo|
----

Bass just plays the Verse throughout the Solo.

G|---------------------|
D|-----------------0-3-|
A|---------0-1-1-1-----|
E|-1-1-1-3-------------|


Ending|
------

G|--------------------|
D|--------------------|
A|-7-7777777777777777-|
E|--------------------|
            
Submit corrections

↑ Back to top | Tablatures and chords for acoustic guitar and electric guitar, ukulele, drums are parodies/interpretations of the original songs. You may use it for private study, scholarship, research or language learning purposes only