Home » S » Steve Miller Band »

Steve Miller Band - Space Cowboy Bass

Artists:  A B C D E F G H I J K L M N O P Q R S T U V W X Y Z # 

Space Cowboy Bass

(ver. 1) Click to play this song!
Steve Miller Band
-------------------------------------------------------------------------------
-------------------------------------------------------------------------------


Tuning:EADG
   
  Intro
G|------------------------------------------------------------------------------|
D|-------------------------11--------11--------11--------11--------11--------11-|
A|-------4-------4--8-11-8----8-11-8----8-11-8----8-11-8----8-11-8----8-11-8----|
E|-1-4-1---1-4-1----------------------------------------------------------------|
   
   Verse
G|----------------------|
D|---------------0-3----|20x (I think)
A|-----------0-1--------|
E|--1-1--4-4------------|
   
   Chorus
G|----------------------------------------------------------------------------|
D|----------------------------------------------------------------------------|
A|--------------------------------1--1--1--1-(1)-4--4--4--4-(4)-8--8--8--8-(8)|
E|--1--1--1--1-(1)-4--4--4--4-(4)---------------------------------------------|

G|---------------------------------|
D|-8--8--8--8-(8)-11--11--11--11-/-|
A|---------------------------------|
E|---------------------------------|
   That Other Part
G|---------------------------------------|
D|---------------0-3--------------0--3---|
A|-----------0-1------------0--1---------|
E|--1-1--4-4----------1--4---------------|
    That 2nd other part
G|---------------------------------------------------------|
D|---------------------------------------------------------|
A|--8-8----8-8----8-8----8-8-----8-8----8-8-----8-8----8-8-|
E|---------------------------------------------------------|

G|----------------------|
D|---------------0-3----|20x
A|-----------0-1--------|
E|--1-1--4-4------------|

   Chorus
G|----------------------------------------------------------------------------|
D|----------------------------------------------------------------------------|
A|--------------------------------1--1--1--1-(1)-4--4--4--4-(4)-8--8--8--8-(8)|
E|--1--1--1--1-(1)-4--4--4--4-(4)---------------------------------------------|

G|---------------------------------|
D|-8--8--8--8-(8)-11--11--11--11-/-|
A|---------------------------------|
E|---------------------------------|
   That other part
G|--------------------------------------|
D|---------------0-3--------------0--3--|
A|-----------0-1------------0--1--------|
E|--1-1--4-4----------1--4--------------|

   That 2nd other part
G|----------------------------------------------------------|
D|----------------------------------------------------------|
A|--8-8----8-8----8-8----8-8-----8-8----8-8-----8-8----8-8--|
E|----------------------------------------------------------|
    Verse
G|----------------------|
D|---------------0-3----|
A|-----------0-1--------|
E|--1-1--4-4------------|
    
    Chorus
G|----------------------------------------------------------------------------|
D|----------------------------------------------------------------------------|
A|--------------------------------1--1--1--1-(1)-4--4--4--4-(4)-8--8--8--8-(8)|
E|--1--1--1--1-(1)-4--4--4--4-(4)---------------------------------------------|

G|---------------------------------|
D|-8--8--8--8-(8)-11--11--11--11-/-|
A|---------------------------------|
E|---------------------------------|
    
   That other part
G|--------------------------------------|
D|---------------0-3--------------0--3--|
A|-----------0-1------------0--1--------|
E|--1-1--4-4----------1--4--------------|

   Verse
G|----------------------|
D|---------------0-3----|20x
A|-----------0-1--------|
E|--1-1--4-4------------|

    Chorus
G|----------------------------------------------------------------------------|
D|----------------------------------------------------------------------------|
A|--------------------------------1--1--1--1-(1)-4--4--4--4-(4)-8--8--8--8-(8)|
E|--1--1--1--1-(1)-4--4--4--4-(4)---------------------------------------------|

G|---------------------------------|
D|-8--8--8--8-(8)-11--11--11--11-/-|
A|---------------------------------|
E|---------------------------------|
   
   Outro
G|--------------------------------------------------------------------------|
D|---------------0-3--------------0--3--------------0--3--------------0--3--|
A|-----------0-1------------0--1--------------0--1--------------0--1--------|
E|--1-1--4-4----------1--4--------------1--4--------------1--4--------------|


G|------------------|
D|------------------|
A|-8~---------------|
E|------------------|

               **During the Chorus it sounds better to have a mute note 
                 between the notes, i just didn't want to write it out.
             
               **When the F's are being played after the main riff,
		I put it at 8, but it's probably played at 1 on the 
                E string.

   
| /  slide up     (#) play right before note after it
| \  slide down
| h  hammer-on
| p  pull-off
| ~  hold note
| +  harmonic
| x  Mute note
===============================================================================
            
Submit corrections

↑ Back to top | Tablatures and chords for acoustic guitar and electric guitar, ukulele, drums are parodies/interpretations of the original songs. You may use it for private study, scholarship, research or language learning purposes only