Home » S » Steve Miller Band »

Steve Miller Band - Rockin Me Tabs

Artists:  A B C D E F G H I J K L M N O P Q R S T U V W X Y Z # 

Rockin Me Tabs

(ver. 3) Click to play this song!
Steve Miller Band
 Rating:
3.8/5 (5 votes)
                Intro:
e||----------------------------------------------------------------------|
B||o---------------------------------------------------------------------|
G||-------------------------------------9-9------------------------------|
D||--7---7-7-----9\-----------------9---9-9-----9\-----------------------|
A||o-7---7-7-----9\-----------------9---7-7-----9\-----------------------|
E||--5---5-5-----7\-----------------7---7-7-----7\-----------------------|
                                                  1._____________________
e|------------------------------------------------|---------------------||
B|------------------------------------------------|--------------------o||
G|------------------------------------------------|---------------------||
D|-9--9--9--9--9--9--9--9--9--9--9--9--9--9--9--9-|-9\------------------||
A|-9-11-11--9-11-11--9-11-11--9-11-11--9-11-11-11-|-9\-----------------o||
E|------------------------------------------------|-7\------------------||
 2._________________________
e|-----------------------------------------------------------------------|
B|-----------------------------------------------------------------------|
G|-----------------------------------------------------------------------|
D|-----------------------------------------------------------------------|
A|-------------5~------------------------------5~------------------------|
E|-2---5---7-----------5---7~------2---5---7-----------5~------6~--------|

e|-----------------------------------------------------------------------|
B|-----------------------------------------------------------------------|
G|-----------------------------------------------------------------------|
D|-----------------------------------------------------------------------|
A|-9---9--11---9---9---9--11---9---9---9--11---9---9---9--11---9---------|
E|-7---7---7---7---7---7---7---7---7---7---7---7---7---7---7---7---------|

e|-----------------------------------------------------------------------|
B|-----------------------------------------------------------------------|
G|-----------------------------------------------------------------------|
D|-----------------------------------------------------------------------|
A|-7---7---9---7---7---7---9---7---7---7---9---7---7---7---9---7---------|
E|-5---5---5---5---5---5---5---5---5---5---5---5---5---5---5---5---------|

e|-----------------------------------------------------------------------|
B|-----------------------------------------------------------------------|
G|-----------------------------------------------------------------------|
D|-9---9--11---9---9---9--11---9---9---9--11---9---9---9--11---9---------|
A|-7---7---7---7---7---7---7---7---7---7---7---7---7---7---7---7---------|
E|-----------------------------------------------------------------------|

e|-----------------------------------------------------------------------|
B|-----------------------------------------------------------------------|
G|-----------------------------------------------------------------------|
D|-----------------------------------------------------------------------|
A|-9---9--11---9---9---9--11---9---9---9--11---9---9---9--11---9---------|
E|-7---7---7---7---7---7---7---7---7---7---7---7---7---7---7---7---------|

e|-----------------------------------------------------------------------|
B|-----------------------------------------------------------------------|
G|-----------------------------------------------------------------------|
D|-----------------------------------------------------------------------|
A|-9---9--11---9---9---9--11---9---9---9--11---9---9---9--11---9---------|
E|-7---7---7---7---7---7---7---7---7---7---7---7---7---7---7---7---------|

e|-----------------------------------------------------------------------|
B|-----------------------------------------------------------------------|
G|-----------------------------------------------------------------------|
D|-----------------------------------------------------------------------|
A|-7---7---9---7---7---7---9---7---7---7---9--101010101010-9-9-9-9-------|
E|-5---5---5---5---5---5---5---5---5---5---5---5-5-5-5-5-5-5-5-5-5-------|

e|-----------------------------------------------------------------------|
B|-----------------------------------------------------------------------|
G|-----------------------------------------------------------------------|
D|-9---9--11---9---9---9--11---9---9---9--11--12121212121211111111-------|
A|-7---7---7---7---7---7---7---7---7---7---7---7-7-7-7-7-7-7-7-7-7-------|
E|-----------------------------------------------------------------------|

e|-----------------------------------------------------------------------|
B|-----------------------------------------------------------------------|
G|-----------------------------------------------------------------------|
D|-----------------------------------------------------------------------|
A|-9---9--11---9---9---9--11---9---9---9--11---9---9---9--11---9---------|
E|-7---7---7---7---7---7---7---7---7---7---7---7---7---7---7---7---------|

============================================================================
            
Submit corrections

↑ Back to top | Tablatures and chords for acoustic guitar and electric guitar, ukulele, drums are parodies/interpretations of the original songs. You may use it for private study, scholarship, research or language learning purposes only