Home » S » Steve Miller Band »

Steve Miller Band - Rockin Me Bass

Artists:  A B C D E F G H I J K L M N O P Q R S T U V W X Y Z # 

Rockin Me Bass

(ver. 2) Click to play this song!
Steve Miller Band
---------------------------------------------------------------------------
			   Rockin Me - STEVE MILLER BAND
---------------------------------------------------------------------------


Tuning: Standard

INTRO/BRIDGE
G|------------------------------------------------|
D|------------------------------------------------|
A|------------7-7------5h7--5h7--5h7--5h7---------|
E|--5-5-7--7-------7-----------------------7------|x2

G|---------------------------------------|
D|---------------------------------------|
A|-------2-5---2------2-5----------------|
E|---2-5-----5----2-5-----5-5------------|

VERSES
G|-----------------------------------------------------|
D|-----------------------------------------------------|
A|-----------------------------------------------------|
E|-7-7-7-7-7-7-7-7-7-7-7-7-7-7-7-7-5-5-5-5-5-5-5-5-----|

G|-----------------------------------------------------|
D|-----------------------------------------------------|
A|-----------------------------------------------------|
E|-5-5-5-5-5-5-5-5-0-0-0-0-0-0-0-0-0-0-0-0-0-0-0-0-----|


CHORUS
G|-----------------------------------------------------|
D|-----------------------------------------------------|
A|-----------------------------------------------------|
E|-7-7-7-7-7-7-7-7-7-7-7-7-7-7-7-7-5-5-5-5-5-5-5-5-----|

G|-----------------------------------------------------|
D|-----------------------------------------------------|
A|-----5-----5-------------------------7-----7---------|
E|-5-5---5-5---5-5-0-0-0-0-0-0-0-0-0-0---0-0---0-0-----|


| /  slide up
| \  slide down
| h  hammer-on
| p  pull-off
| ~  vibrato
| +  harmonic
| x  Mute note
===========================================================================
            
Submit corrections

↑ Back to top | Tablatures and chords for acoustic guitar and electric guitar, ukulele, drums are parodies/interpretations of the original songs. You may use it for private study, scholarship, research or language learning purposes only