Home » S » Steve Miller Band »

Steve Miller Band - Abracadabra Bass

Artists:  A B C D E F G H I J K L M N O P Q R S T U V W X Y Z # 

Abracadabra Bass

(ver. 2) Click to play this song!
Steve Miller Band
-------------------------------------------------------------------------------
			     ABRACADABRA - Steve Miller Band
-------------------------------------------------------------------------------



Tuning: Standard (EADG)

G|-------|-------|-------|----------|-------|-------|-------|----------|
D|-------|-------|-------|----------|-------|-------|-------|----------|
A|-----7-|-7-----|-----7-|----------|-----7-|-7-----|-----7-|----------|
E|-5-8---|---8-5-|-5-8---|-3-5-5-3-5|-5-8---|---8-5-|-5-8---|-3-5-5-3-5|

G|-------|-------|-------|-------|-------|-------|-------|-------|-------|-------|
D|-------|-----7-|-------|-------|-------|-------|-----7-|-------|-------|-------|
A|-----7-|-5-8---|-----2-|-----7-|-------|-----7-|-5-8---|-----2-|-----7-|-------|
E|-5-8---|-------|-0-4---|-5-8---|-5/2---|-5-8---|-------|-0-4---|-5-8---|-5/2---|

G|-------|-------|-------|-------|-------|-------|-------|------|------|------|
D|-------|-----7-|-------|-------|-------|-------|-----7-|------|------|------|
A|-----7-|-5-8---|-----2-|-----7-|-------|-----7-|-5-8---|------|------|------|
E|-5-8---|-------|-0-4---|-5-8---|-5/2---|-5-8---|-------|-00-00|-00-00|-00-0-|

G|-------|-------|-------|-------|-------|-------|-------|-------|-------|-------|
D|-------|-----7-|-------|-------|-------|-------|-----7-|-------|-------|-------|
A|-----7-|-5-8---|-----2-|-----7-|-------|-----7-|-5-8---|-----2-|-----7-|-------|
E|-5-8---|-------|-0-4---|-5-8---|-5/2---|-5-8---|-------|-0-4---|-5-8---|-5/2---|

G|-------|-------|-------|-------|-------|-------|-------|-------|-------|-------|
D|-------|-----7-|-------|-------|-------|-------|-----7-|-------|-------|-------|
A|-----7-|-5-8---|-----2-|-----7-|-------|-----7-|-5-8---|-----2-|-----7-|-------|
E|-5-8---|-------|-0-4---|-5-8---|-5/2---|-5-8---|-------|-0-4---|-5-8---|-5/2---|

G|-------|-------|-------|-------|-------|-------|-------|-------|-------|-------|
D|-------|-----7-|-------|-------|-------|-------|-----7-|-------|-------|-------|
A|-----7-|-5-8---|-----2-|-----7-|-------|-----7-|-5-8---|-----2-|-----7-|-------|
E|-5-8---|-------|-0-4---|-5-8---|-5/2---|-5-8---|-------|-0-4---|-5-8---|-5/2---|

G|-------|-------|-------|-------|-------|-------|-------|-------|-------|-------|
D|-------|-----7-|-------|-------|-------|-------|-----7-|-------|-------|-------|
A|-----7-|-5-8---|-----2-|-----7-|-------|-----7-|-5-8---|-----2-|-----7-|-------|
E|-5-8---|-------|-0-4---|-5-8---|-5/2---|-5-8---|-------|-0-4---|-5-8---|-5/2---|

G|-------|-------|-------|-------|-------|-------|-------|-------|-------|-------|
D|-------|-----7-|-------|-------|-------|-------|-----7-|-------|-------|-------|
A|-----7-|-5-8---|-----2-|-----7-|-------|-----7-|-5-8---|-----2-|-----7-|-------|
E|-5-8---|-------|-0-4---|-5-8---|-5/2---|-5-8---|-------|-0-4---|-5-8---|-5/2---|

G|-------|-------|-------|-------|-------|-------|-------|-------|-------|-------|
D|-------|-----7-|-------|-------|-------|-------|-----7-|-------|-------|-------|
A|-----7-|-5-8---|-----2-|-----7-|-------|-----7-|-5-8---|-----2-|-----7-|-------|
E|-5-8---|-------|-0-4---|-5-8---|-5/2---|-5-8---|-------|-0-4---|-5-8---|-5/2---|

G|-------|-------|-------|-------|-------|-------|-------|------|------|------|
D|-------|-----7-|-------|-------|-------|-------|-----7-|------|------|------|
A|-----7-|-5-8---|-----2-|-----7-|-------|-----7-|-5-8---|------|------|------|
E|-5-8---|-------|-0-4---|-5-8---|-5/2---|-5-8---|-------|-00-00|-00-00|-00-0-|

G|------|------|------|-------|-------|-------|-------|-------|
D|------|------|------|-------|-----7-|-------|-------|-------|
A|------|------|------|-----7-|-5-8---|-----2-|-----7-|-------|
E|-00-00|-00-00|-00-0-|-5-8---|-------|-0-4---|-5-8---|-5/2---|

G|-------|-------|-------|-------|-------|-------|-------|-------|-------|-------|
D|-------|-----7-|-------|-------|-------|-------|-----7-|-------|-------|-------|
A|-----7-|-5-8---|-----2-|-----7-|-------|-----7-|-5-8---|-----2-|-----7-|-------|
E|-5-8---|-------|-0-4---|-5-8---|-5/2---|-5-8---|-------|-0-4---|-5-8---|-5/2---|

G|-------|-------|------|------|------|------|------|------|------|------|------|
D|-------|-----7-|------|------|------|------|------|------|------|------|------|
A|-----7-|-5-8---|------|------|------|------|------|------|------|------|------|
E|-5-8---|-------|-00-00|-00-00|-00-0-|-00-00|-00-00|-00-0-|-00-00|-00-00|-00-0-|

G|-------|-------|-------|----------|-------|-------|-------|----------|
D|-------|-------|-------|----------|-------|-------|-------|----------|
A|-----7-|-7-----|-----7-|----------|-----7-|-7-----|-----7-|----------|
E|-5-8---|---8-5-|-5-8---|-3-5-5-3-5|-5-8---|---8-5-|-5-8---|-3-5-5-3-5|

G|-------|-------|-------|----------|-------|-------|-------|----------|
D|-------|-------|-------|----------|-------|-------|-------|----------|
A|-----7-|-7-----|-----7-|----------|-----7-|-7-----|-----7-|----------|
E|-5-8---|---8-5-|-5-8---|-3-5-5-3-5|-5-8---|---8-5-|-5-8---|-3-5-5-3-5|

G|-------|-------|-------|----------|--------|--------|--------|--------|
D|-------|-------|-------|----------|--------|--------|--------|--------|
A|-----7-|-7-----|-----7-|----------|--------|--------|--------|--------|
E|-5-8---|---8-5-|-5-8---|-3-5-5-3-5|-5-5-5-5|-5-5-5-5|-5-5-5-5|-5-5-5-5|

G|--------|--------|--------|--------|--------|--------|--------|--------|
D|--------|--------|--------|--------|--------|--------|--------|--------|
A|--------|--------|--------|--------|--------|--------|--------|--------|
E|-5-5-5-5|-5-5-5-5|-5-5-5-5|-5-5-5-5|-5-5-5-5|-5-5-5-5|-5-5-5-5|-5-5-5-5|

G|--------|--------|--------|--------|--------|--------|--------|--------|
D|--------|--------|--------|--------|--------|--------|--------|--------|
A|--------|--------|--------|--------|--------|--------|--------|--------|
E|-5-5-5-5|-5-5-5-5|-5-5-5-5|-5-5-5-5|-5-5-5-5|-5-5-5-5|-5-5-5-5|-5-5-5-5|

G|----------|
D|----------|
A|----------|
E|-3-5-5-3-5|


| /  slide up
| \  slide down
| h  hammer-on
| p  pull-off
| ~  vibrato
| +  harmonic
| x  Mute note
===============================================================================
            
Submit corrections

↑ Back to top | Tablatures and chords for acoustic guitar and electric guitar, ukulele, drums are parodies/interpretations of the original songs. You may use it for private study, scholarship, research or language learning purposes only