» » »

Static - X - Shadow Zone Tabs

Artists:  A B C D E F G H I J K L M N O P Q R S T U V W X Y Z # 

Shadow Zone Tabs

(ver. 3) Click to play this song!
Static - X
 Rating:
4/5 (4 votes)

 Shadow Zone lessons Tabs too difficult? Try these video lessons and learn fast
 
                Band	Static-X
Song	Shadow Zone
Tuning	C G C F A D
Aim	Empty St1tches

Key
~  - Let Ring

F|-8-8-8-|
C|-X-X-X-|
G|-6-6-6-|

Intro 1 (Lead)
D|----10-|
A|-10----|

Chorus (Rythem)
C|-------------------------|
G|-------------------------|
C|-0~~~10-6~~~0~~~10-6~~~3-|

Verse
F|----------------|--------------|
C|-0--0--00-00-13-|-0------------|
G|-0--0--00-00-11-|-0--3-3-3-4-1-|
C|-0--0--00-00----|-0--3-3-3-4-1-|
		    .

Verse (Lead Solo)
D|----13---------13----17----|
A|-15----13-12------15-------|
F|------------------------12-|

Chorus (Lead)
D|----15-|
A|-15----|

Bridge
F|-----------------|
C|-----------------|
G|-0~~~8~~~6~~~1~~~|
C|-0~~~8~~~6~~~1~~~|
            
Submit corrections


        Shadow Zone lessons Hard to play? Try these video lessons and learn fast Shadow Zone lessons
        
↑ Back to top | Tablatures and chords for acoustic guitar and electric guitar, ukulele, drums are parodies/interpretations of the original songs. You may use it for private study, scholarship, research or language learning purposes only