» » »

Static - X - Shadow Zone Tabs

Artists:  A B C D E F G H I J K L M N O P Q R S T U V W X Y Z # 

Shadow Zone Tabs

(ver. 1) Click to play this song!
Static - X
 Rating:
4/5 (4 votes)

 Shadow Zone lessons Tabs too difficult? Try these video lessons and learn fast
 
                Bend       b^
Vibrato    ~
hammeron   >
pulloff    <
slide up   /
slide down \
harmonics  *
palm mute  pm...... (underneath tab)
x          muted strings (put your finger slightly on them)



Intro:

D|-----------------------------|
A|-----------------------------|
F|-8-8-8---8-8-8---8-8-8---8-8-|
C|-x-x-x---x-x-x---x-x-x---x-x-|
G|-6-6-6---6-6-6---6-6-6---6-6-|
C|-----------------------------|

Chorus: riff 2x

D|-----------------------|
A|-----------------------|
F|-----------------------|
C|-0--------3----6-------|
G|-0--------3----6-------|
C|-0--------3----6-------|

D|------------------------------------|
A|------------------------------------|
F|------------------------------------|
C|-0---------------3----6------3-3-3b^|
G|-0---------------3----6------3-3-3b^|
C|-0---------------3----6------3-3-3b^|

Lead: Played Over Chorus riff

D|----10----10----10----10----10|
A|-10----10----10----10----10---|
F|------------------------------|
C|------------------------------|
G|------------------------------|
C|------------------------------|

Verse:3x

D|-----------------|  
A|-----------------|
F|--xx-xx-xx-xx-x--|
C|-0--0--0--0--0-6-|
G|-0--0--0--0--0-6-|
C|-0--0--0--0--0-6-|

Then Verse Part 2 1x

D|-------------------|
A|-------------------|
F|--xx-xx-xx---------|
C|-0--0--0--0--3334\1|
G|-0--0--0--0--3334\1|
C|-0--0--0--0--3334\1|

Repeat verses 4x 

Verse Lead: played over verse 4th time only

D|----13---------13----17----|
A|-15----13-12------15-------|
F|------------------------12-|
C|---------------------------|
G|---------------------------|
C|---------------------------|

Chorus: With Lyrics Once

D|-----------------------|
A|-----------------------|
F|-----------------------|
C|-0--------3----6-------|
G|-0--------3----6-------|
C|-0--------3----6-------|

D|-----------------------------|
A|-----------------------------|
F|-----------------------------|
C|-0--------3----6------3-3-3b^|
G|-0--------3----6------3-3-3b^|
C|-0--------3----6------3-3-3b^|

Lead: Played Over Chorus

D|----15----15----15----15----15|
A|-15----15----15----15----15---|
F|------------------------------|
C|------------------------------|
G|------------------------------|
C|------------------------------|

Repeat Verse

Chorus 1x.

Interlude 4x

D|-----------------|  
A|-----------------|
F|-----------------|
C|-0--0--0--0--0-6-|
G|-0--0--0--0--0-6-|
C|-0--0--0--0--0-6-|

Bridge: 4x

D|-----------------|
A|-----------------|
F|-----------------|
C|-0---8---6---1---|
G|-0---8---6---1---|
C|-0---8---6---1---|

Chorus: 2x

Quick Intro to Last Verse

D|---------------|
A|---------------|
F|-8-8-8---8-8-8-|
C|-x-x-x---x-x-x-|
G|-6-6-6---6-6-6-|
C|---------------|

Verse:3x

D|-----------------|  
A|-----------------|
F|--xx-xx-xx-xx-x--|
C|-0--0--0--0--0-6-|
G|-0--0--0--0--0-6-|
C|-0--0--0--0--0-6-|

Then Verse Part 2 1x

D|-------------------|
A|-------------------|
F|--xx-xx-xx---------|
C|-0--0--0--0--3334\1|
G|-0--0--0--0--3334\1|
C|-0--0--0--0--3334\1|

That's It, I like It
            
Submit corrections


        Shadow Zone lessons Hard to play? Try these video lessons and learn fast Shadow Zone lessons
        
↑ Back to top | Tablatures and chords for acoustic guitar and electric guitar, ukulele, drums are parodies/interpretations of the original songs. You may use it for private study, scholarship, research or language learning purposes only