» » »

Static - X - Shadow Zone Tabs

Artists:  A B C D E F G H I J K L M N O P Q R S T U V W X Y Z # 

Shadow Zone Tabs

(ver. 2) Click to play this song!
Static - X
 Rating:
4/5 (4 votes)

 Shadow Zone lessons Tabs too difficult? Try these video lessons and learn fast
 
                Tuning: CGCFAD

Key:

.   =  palm mute
x   =  dead note

Intro:  0:00

|------|
|------|
|--8---|
|--x---|
|--6---|
|------|
Fade In With That Note

|---------------------------|
|---------------------------|
|-8-8-8--8-8-8--8-8-8--8-8--|
|-x-x-x--x-x-x--x-x-x--x-x--|
|-6-6-6--6-6-6--6-6-6--6-6--|
|---------------------------|



Chorus: 0:05

Guitar 1

|------------------|
|------------------|
|------------------|
|------------------|
|-----5--5-3-------|
|--0----------6----|

|-------------------------|
|-------------------------|
|-------------------------|
|-------------------------|
|-----5--5-3--------1-1-1-|
|--0----------6-----1-1-1-|


|------------------|
|------------------|
|------------------|
|------------------|
|-----5--5-3-------|
|--0----------6----|

|-------------------------|
|-------------------------|
|-------------------------|
|-------------------------|
|-----5--5-3--------3-3-3-|
|--0----------6-----3-3-3-|

Guitar 2

|----------|
|----15----|
|--14------|    Play 32 Times.
|----------|
|----------|
|----------|



Verse:  0:21

|------------------|
|------------------|
|------------------|
|------------------|
|--0-0----00--0006-|
|--0-0----00--0006-|   Play 3 Times
          ..  ...   

|------------------|
|------------------|
|------------------|
|------------------|
|--0-0-x-----------|
|--0-0-x--3/6\3\1--|

^^^ Play Verse 5 Times

Verse P 2(Tripp) 0:44

|-----------------------------17----------|
|--15--18-----------18---15---------------|
|-----------17--16------------------13----|
|-----------------------------------------|
|-----------------------------------------|
|-----------------------------------------|


Chorus: 0:51

Guitar 1

|------------------|
|------------------|
|------------------|
|------------------|
|-----5--5-3-------|
|--0----------6----|

|-------------------------|
|-------------------------|
|-------------------------|
|-------------------------|
|-----5--5-3--------1-1-1-|
|--0----------6-----1-1-1-|


|------------------|
|------------------|
|------------------|
|------------------|
|-----5--5-3-------|
|--0----------6----|

|-------------------------|
|-------------------------|
|-------------------------|
|-------------------------|
|-----5--5-3--------3-3-3-|
|--0----------6-----3-3-3-|

Guitar 2

|----------|
|----15----|
|--14------|    Play 32 Times.
|----------|
|----------|
|----------|


Verse: 1:07

|------------------|
|------------------|
|------------------|
|------------------|
|--0-0----00--0006-|
|--0-0----00--0006-|   Play 3 Times
          ..  ...   

|------------------|
|------------------|
|------------------|
|------------------|
|--0-0-x-----------|
|--0-0-x--3/6\3\1--|

^^^ Play Verse 2 Times

Verse P 2(Tripp)
1:14
|-----------------------------17----------|
|--15--18-----------18---15---------------|
|-----------17--16------------------13----|
|-----------------------------------------|
|-----------------------------------------|
|-----------------------------------------|


Chorus:  1:21

Guitar 1

|------------------|
|------------------|
|------------------|
|------------------|
|-----5--5-3-------|
|--0----------6----|

|-------------------------|
|-------------------------|
|-------------------------|
|-------------------------|
|-----5--5-3--------1-1-1-|
|--0----------6-----1-1-1-|


|------------------|
|------------------|
|------------------|
|------------------|
|-----5--5-3-------|
|--0----------6----|

|-------------------------|
|-------------------------|
|-------------------------|
|-------------------------|
|-----5--5-3--------3-3-3-|
|--0----------6-----3-3-3-|

Guitar 2

|----------|
|----15----|
|--14------|    Play 32 Times.
|----------|
|----------|
|----------|


Bridge 1:37

|------------------|
|------------------|
|------------------|
|------------------|
|--0-0----00--0006-|
|--0-0----00--0006-|   Play 4 Times
          ..  ...     

1:45
|------------------------------|
|------------------------------|
|------------------------------|
|------------------------------|
|------------------------------|   Play 4 Times
|---0-------8------6-------1---|   NOTE: dont play the 1 on the fourth time.



Chorus: 2:15

Guitar 1

|------------------|
|------------------|
|------------------|
|------------------|
|-----5--5-3-------|
|--0----------6----|

|-------------------------|
|-------------------------|
|-------------------------|
|-------------------------|
|-----5--5-3--------1-1-1-|
|--0----------6-----1-1-1-|


|------------------|
|------------------|
|------------------|
|------------------|
|-----5--5-3-------|
|--0----------6----|

|-------------------------|
|-------------------------|
|-------------------------|
|-------------------------|
|-----5--5-3--------3-3-3-|
|--0----------6-----3-3-3-|

Guitar 2

|----------|
|----15----|
|--14------|    Play 32 Times.
|----------|
|----------|
|----------|

^^^ Play Chorus Whole Chorus Twice.

2:47
|----------------|
|----------------|
|--8-8-8--8-8-8--|
|--x-x-x--x-x-x--|
|--6-6-6--6-6-6--|
|----------------|



Verse:
2:48
|------------------|
|------------------|
|------------------|
|------------------|
|--0-0----00--0006-|
|--0-0----00--0006-|   Play 3 Times
          .  ...   

|------------------|
|------------------|
|------------------|
|------------------|
|--0-0-x-----------|
|--0-0-x--3/6\3\1--|

^^ Twice

END 3:03
|----------------|
|----------------|
|----------------|
|----------------|
|-x--------------|
|-x--3/6\3\1-----|
            
Submit corrections


        Shadow Zone lessons Hard to play? Try these video lessons and learn fast Shadow Zone lessons
        
↑ Back to top | Tablatures and chords for acoustic guitar and electric guitar, ukulele, drums are parodies/interpretations of the original songs. You may use it for private study, scholarship, research or language learning purposes only