Home » S » Sportfreunde Stiller »

Sportfreunde Stiller - Ein Kompliment Bass

Artists:  A B C D E F G H I J K L M N O P Q R S T U V W X Y Z # 

Ein Kompliment Bass

(ver. 1) Click to play this song!
Sportfreunde Stiller
 Rating:
3.4/5 (5 votes)
                Ein Kompliment
Sportsfreund Stiller
Standard Tuning
Intro
G|--------------------------------------------------------------------------|
D|--------------------------------------------------------------------------|
A|-5555555555555555-0000000000000000-3333333333333333-----------------------|
E|----------------------------------------------------0---------------------|
                                         Das letzte E haelt man fuer 2 Takte

Intro Teil 2  X2
G|--------------------------------------------------------------------------|
D|--------------------------------------------------------------------------|
A|-5555555555555555-0000000000000000-3333333333333333-----------------------|
E|----------------------------------------------------00--000--0--0--000-00-|

  Verse 1  X2
G|--------------------------------------------------------------------------|
D|--------------------------------------------------------------------------|
A|-(5)---------------0----------------3-------------------------------------|
E|-----------------------------------------------------0--------------------|


  Chorus X2
G|-------------------------------------------------------------------------|
D|-------------------------------------------------------------------------|
A|5555555555555555-0000000000000000-3333333333333333-77--777--7--7--777-77-|
E|-------------------------------------------------------------------------|

  Verse 2
G|--------------------------------------------------------------------------|
D|--------------------------------------------------------------------------|
A|-(5)----------------0----------------3------------------------------------|
E|-----------------------------------------------------0--------------------|

Beim 2. Teil kann man entweder Verse 2 normal wiederholen oder wie Intro Teil 1 spielen

Chorus X2

Bridge X2
G|--------------------------------------------------------------------|
D|--------------------------------------------------------------------|
A|-55--555--5--5--555-55-00--000--0--0--000-00--33--333--3--3--333-33-|
E|--------------------------------------------------------------------|

G -------------------------|
D -------------------------|
A -(77--777--7--7--777-77)-|  Entweder ein hoeheres E oder ein Tieferes
E -(00--000--0--0--000-00)-|  Ich bin nicht sicher welches richtig ist.

  Chorus X2

Ende

Tab von Bobert5 geschrieben
            
Submit corrections

↑ Back to top | Tablatures and chords for acoustic guitar and electric guitar, ukulele, drums are parodies/interpretations of the original songs. You may use it for private study, scholarship, research or language learning purposes only