» » »

Sportfreunde Stiller - Ein Kompliment Bass

Artists:  A B C D E F G H I J K L M N O P Q R S T U V W X Y Z # 

Ein Kompliment Bass

(ver. 3) Click to play this song!
Sportfreunde Stiller
 Rating:
4/5 (5 votes)

 Ein Kompliment lessons Tabs too difficult? Try these video lessons and learn fast
 
                Standard tuning.
No bass in the beginning, but you can play this for the intro:
|---------------------------------------------------------------|
|------------------777777777------7-7-7--------10101010---------|
|-55555555555555577---------7-7-7----------------------10101010-|
|--------------------------------------8-8-8-8------------------|

@ 00:09

|---------------|
|---------------|
|-7~-------10\--|
|---------------|

Chorus:
|-------------------------------------------------------------------|
|---4-44----4-4455777--7-7-7--------2-22----2-22--------------------|
|-55-5--55-5-5-------77-7----7755-33-3--33-3-3--33------------------|
|--------------------------------------------------00-0-00-0-00-000-|

Verse A:
|----------------|
|-----7~---------|
|-5~----------7~-|
|---------8~-----|

Verse B:
|--------------|-----------------|------------------|----------------|
|-12121212--12-|--12121212-------|-----14--1414-----|---14--14141212-|
|---------99---|-9--------991010-|-1212--12----1212-|-12--12---------|
|--------------|-----------------|------------------|----------------|

|-----9--99-----|----9--99-----|------|
|-1010-10--1010-|--10-10--1010-|------|
|---------------|--------------|-7----|
|---------------|--------------|------|


Song goes like this:
00:00-00:12 Intro
Chorus 2x
Rest while 1st part of 1st verse.
Verse A 1x
Chorus 2x
Verse A 1x
Verse B 1x
Chorus 2x
Verse A 2x
Chorus 2x

End on:
|-----|
|-----|
|-5~--|
|-----|
            
Submit corrections


        Ein Kompliment lessons Hard to play? Try these video lessons and learn fast Ein Kompliment lessons
        
↑ Back to top | Tablatures and chords for acoustic guitar and electric guitar, ukulele, drums are parodies/interpretations of the original songs. You may use it for private study, scholarship, research or language learning purposes only