Home » S » Spencer Davis Group »

Spencer Davis Group - Gimme Some Lovin' Bass

Artists:  A B C D E F G H I J K L M N O P Q R S T U V W X Y Z # 

Gimme Some Lovin' Bass

(ver. 3) Click to play this song!
Spencer Davis Group
 Intro & Interlude
  Q=142
 4/4
  Gtr I
  E E E E q  q    E E E E q  q    E E E E q  q    E E E E q  q
|---------------|---------------|---------------|---------------|
|-5-5-5-5-5-----|-5-5-5-5-5-----|-5-5-5-5-5-----|-5-5-5-5-5-----|
|---------------|---------------|---------------|---------------|
|------------3--|------------3--|------------3--|------------3--|


  E E E E q  q    E E E E q  q    E E E E q  q    E E E E q  q
|---------------|---------------|---------------|---------------|
|-5-5-5-5-5-----|-5-5-5-5-5-----|-5-5-5-5-5-----|-5-5-5-5-5-----|
|---------------|---------------|---------------|---------------|
|------------3--|------------3--|------------3--|------------3--|


    $
    E E E E q  q    E E E E q  q    E E E E q  q    E E E E q  q
||----------------|---------------|---------------|----------------|
||o-5-5-5-5-5-----|-5-5-5-5-5-----|-5-5-5-5-5-----|-5-5-5-5-5------|
||o---------------|---------------|---------------|----------------|
||-------------3--|------------3--|------------3--|------------3---|


  E E E E q  q    E E E E q  q    E E E E q  q    E E E E q  q
|---------------|---------------|---------------|---------------|
|-5-5-5-5-5-----|-5-5-5-5-5-----|-5-5-5-5-5-----|-5-5-5-5-5-----|
|---------------|---------------|---------------|---------------|
|------------3--|------------3--|------------3--|------------3--|


                                  1st - 3rd Verses
  E E E E q  q    E E E E q  q     E E E E q  q    E E E E q  q
|---------------|---------------||---------------|---------------|
|-5-5-5-5-5-----|-5-5-5-5-5-----||-5-5-5-5-5-----|-5-5-5-5-5-----|
|---------------|---------------||---------------|---------------|
|------------3--|------------3--||------------3--|------------3--|


  E E E E q  q    E E E E q  q    E E E E q  q    E E E E q  q
|---------------|---------------|---------------|---------------|
|-5-5-5-5-5-----|-5-5-5-5-5-----|-5-5-5-5-5-----|-5-5-5-5-5-----|
|---------------|---------------|---------------|---------------|
|------------3--|------------3--|------------3--|------------3--|


                                  Bridge
  E E E E q  q    E E E E q  q     E E E E E E E E   E E E E E E E E
|---------------|---------------||-----------------|-----------------|
|-5-5-5-5-5-----|-5-5-5-5-5-----||-----------------|-----------------|
|---------------|---------------||-----------------|-1-1-1-1-1-1-1-1-|
|------------3--|------------3--||-3-3-3-3-3-3-3-3-|-----------------|


                                       Chorus
                             To Coda
  E E E E E E E E   E E E E E E E E     E E E E q  q    E E E E q  q
|-----------------|------------------||---------------|---------------|
|-----------------|-1-1-1-1-1-1-1-1--||-5-5-5-5-5-----|-5-5-5-5-5-----|
|-3-3-3-3-3-3-3-3-|------------------||---------------|---------------|
|-----------------|------------------||------------3--|------------3--|


  E E E E q  q    E E E E q  q    E E E E q  q    E E E E q  q
|---------------|---------------|---------------|---------------||
|-5-5-5-5-5-----|-5-5-5-5-5-----|-5-5-5-5-5-----|-5-5-5-5-5-----||
|---------------|---------------|---------------|---------------||
|------------3--|------------3--|------------3--|------------3--||


 Interlude
  1.
  E E E E q  q    E E E E q  q    E E E E q  q
|---------------|---------------|----------------||
|-5-5-5-5-5-----|-5-5-5-5-5-----|-5-5-5-5-5-----o||
|---------------|---------------|---------------o||
|------------3--|------------3--|------------3---||


                                   Outro
  2.
                   D.S. al Coda &
  E E E E q  q    E E E E q  q      E E E E q  q    E E E E q  q   6x
|---------------|---------------||----------------|----------------||
|-5-5-5-5-5-----|-5-5-5-5-5-----||o-5-5-5-5-5-----|-5-5-5-5-5-----o||
|---------------|---------------||o---------------|---------------o||
|------------3--|------------3--||-------------3--|------------3---||            
Submit corrections

↑ Back to top | Tablatures and chords for acoustic guitar and electric guitar, ukulele, drums are parodies/interpretations of the original songs. You may use it for private study, scholarship, research or language learning purposes only