» » »

Spencer Davis Group - Gimme Some Lovin' Tabs

Artists:  A B C D E F G H I J K L M N O P Q R S T U V W X Y Z # 

Gimme Some Lovin' Tabs

(ver. 2) Click to play this song!
Spencer Davis Group
 Rating:
2.5/5 (26 votes)

 Gimme Some Lovin' lessons Tabs too difficult? Try these video lessons and learn fast
 
                Intro & Interlude
  Q=142
  N.C.
 4/4
  Gtr I (Clean El. Gtr.)
  E E E E q  q    E E E E q  q    E E E E q  q    E E E E q  q
|---------------|---------------|---------------|---------------|
|---------------|---------------|---------------|---------------|
|---------------|---------------|---------------|---------------|
|-5-5-5-5-5-----|-5-5-5-5-5-----|-5-5-5-5-5-----|-5-5-5-5-5-----|
|---------------|---------------|---------------|---------------|
|------------3--|------------3--|------------3--|------------3--|


  E E E E q  q    E E E E q  q    E E E E q  q    E E E E q  q
|---------------|---------------|---------------|---------------|
|---------------|---------------|---------------|---------------|
|---------------|---------------|---------------|---------------|
|-5-5-5-5-5-----|-5-5-5-5-5-----|-5-5-5-5-5-----|-5-5-5-5-5-----|
|---------------|---------------|---------------|---------------|
|------------3--|------------3--|------------3--|------------3--|


    $
    G7                        C/G7  C/G   G
    Gtr II (Organ arr. for Gtr.)
                              |--3--|
    W               +H        Q Q   Q   a W               +W
||----------------|-------------------|-----------------|-----------------|
||o-6-------------|-(6)-------5-6---5-|---3-------------|-(3)-------------|
||--7-------------|-(7)-------5-7---5-|-3h4-------------|-(4)-------------|
||--5-------------|-(5)-------5-5---5-|---5-------------|-(5)-------------|
||o---------------|-------------------|-----------------|-----------------|
||----------------|-------------------|-----------------|-----------------|
|
|   Gtr I
|   E E E E q  q     E  E E E q   q       E E E E q  q     E  E E E q  q
||----------------|-------------------|-----------------|-----------------|
||o---------------|-------------------|-----------------|-----------------|
||----------------|-------------------|-----------------|-----------------|
||--5-5-5-5-5-----|--5--5-5-5-5-------|---5-5-5-5-5-----|--5--5-5-5-5-----|
||o---------------|-------------------|-----------------|-----------------|
||-------------3--|---------------3---|--------------3--|--------------3--|


  G7                        C/G7  C/G   G
                            |--3--|
  W               +H        Q Q   Q   a W               +W
|---------------|-------------------|-----------------|-----------------|
|-6-------------|-(6)-------5-6---5-|---3-------------|-(3)-------------|
|-7-------------|-(7)-------5-7---5-|-3h4-------------|-(4)-------------|
|-5-------------|-(5)-------5-5---5-|---5-------------|-(5)-------------|
|---------------|-------------------|-----------------|-----------------|
|---------------|-------------------|-----------------|-----------------|
|
| E E E E q  q     E  E E E q   q       E E E E q  q     E  E E E q  q
|---------------|-------------------|-----------------|-----------------|
|---------------|-------------------|-----------------|-----------------|
|---------------|-------------------|-----------------|-----------------|
|-5-5-5-5-5-----|--5--5-5-5-5-------|---5-5-5-5-5-----|--5--5-5-5-5-----|
|---------------|-------------------|-----------------|-----------------|
|------------3--|---------------3---|--------------3--|--------------3--|


                                      1st - 3rd Verses
  G     C/G         G     C/G          G     C/G         G     C/G
  Q   E E +H        E E E E +H         Q   E E +H        E E E E +H
|-----------------|-----------------||-----------------|-----------------|
|-3-----5-(5)-----|-3-3---5-(5)-----||-3-----5-(5)-----|-3-3---5-(5)-----|
|-4-----5-(5)-----|-4-4---5-(5)-----||-4-----5-(5)-----|-4-4---5-(5)-----|
|-5-----5-(5)-----|-5-5---5-(5)-----||-5-----5-(5)-----|-5-5---5-(5)-----|
|-----------------|-----------------||-----------------|-----------------|
|-----------------|-----------------||-----------------|-----------------|
|
| E E E E  q   q    E E E E  q   q     E E E E  q   q    E E E E  q   q
|-----------------|-----------------||-----------------|-----------------|
|-----------------|-----------------||-----------------|-----------------|
|-----------------|-----------------||-----------------|-----------------|
|-5-5-5-5--5------|-5-5-5-5--5------||-5-5-5-5--5------|-5-5-5-5--5------|
|-----------------|-----------------||-----------------|-----------------|
|--------------3--|--------------3--||--------------3--|--------------3--|


  G     C/G         G     C/G         G     C/G         G     C/G
  Q   E E +H        E E E E +H        Q   E E +H        E E E E +H
|-----------------|-----------------|-----------------|-----------------|
|-3-----5-(5)-----|-3-3---5-(5)-----|-3-----5-(5)-----|-3-3---5-(5)-----|
|-4-----5-(5)-----|-4-4---5-(5)-----|-4-----5-(5)-----|-4-4---5-(5)-----|
|-5-----5-(5)-----|-5-5---5-(5)-----|-5-----5-(5)-----|-5-5---5-(5)-----|
|-----------------|-----------------|-----------------|-----------------|
|-----------------|-----------------|-----------------|-----------------|
|
| E E E E  q   q    E E E E  q   q    E E E E  q   q    E E E E  q   q
|-----------------|-----------------|-----------------|-----------------|
|-----------------|-----------------|-----------------|-----------------|
|-----------------|-----------------|-----------------|-----------------|
|-5-5-5-5--5------|-5-5-5-5--5------|-5-5-5-5--5------|-5-5-5-5--5------|
|-----------------|-----------------|-----------------|-----------------|
|--------------3--|--------------3--|--------------3--|--------------3--|


                                      Bridge
  G     C/G         G     C/G          G                  Bb
  Q   E E +H        E E E E +H         H.           Q     H.           Q
|-----------------|-----------------||-3------------3---|------------------|
|-3-----5-(5)-----|-3-3---5-(5)-----||-3------------3---|-3------------3---|
|-4-----5-(5)-----|-4-4---5-(5)-----||-4------------4---|-3------------3---|
|-5-----5-(5)-----|-5-5---5-(5)-----||-5------------5---|-3------------3---|
|-----------------|-----------------||-5------------5---|-1------------1---|
|-----------------|-----------------||-3------------3---|------------------|
|
| E E E E  q   q    E E E E  q   q     E  E E E E E E E   E  E E E E E E E
|-----------------|-----------------||------------------|------------------|
|-----------------|-----------------||------------------|-3--3-3-3-3-3-3-3-|
|-----------------|-----------------||-4--4-4-4-4-4-4-4-|-3--3-3-3-3-3-3-3-|
|-5-5-5-5--5------|-5-5-5-5--5------||-5--5-5-5-5-5-5-5-|-3--3-3-3-3-3-3-3-|
|-----------------|-----------------||-5--5-5-5-5-5-5-5-|-1--1-1-1-1-1-1-1-|
|--------------3--|--------------3--||-3--3-3-3-3-3-3-3-|------------------|


                                        Chorus
                              To Coda
  C                  Eb                  G             C/G                 G
  H.           Q     H       Q   E E     H       E E E E   +H        E E E E
|------------------|------------------||-3-------3-3-----|-----------------3-|
|-5------------5---|-8-------8---8-8--||-3-------3-3---5-|-(5)-------5-5---3-|
|-5------------5---|-8-------8---8-8--||-4-------4-4---5-|-(5)-------5-5---4-|
|-5------------5---|-8-------8---8-8--||-5-------5-5---5-|-(5)-------5-5---5-|
|-3------------3---|-6-------6---6-6--||-5-------5-5---3-|-(3)-------3-3---5-|
|------------------|------------------||-3-------3-3---3-|-(3)-------3-3---3-|
|
| E  E E E E E E E   E E E E E E E E     E E E E q   q      E  E E E q   q
|------------------|------------------||-----------------|-------------------|
|-5--5-5-5-5-5-5-5-|-8-8-8-8-8-8-8-8--||-----------------|-------------------|
|-5--5-5-5-5-5-5-5-|-8-8-8-8-8-8-8-8--||-----------------|-------------------|
|-5--5-5-5-5-5-5-5-|-8-8-8-8-8-8-8-8--||-5-5-5-5-5-------|--5--5-5-5-5-------|
|-3--3-3-3-3-3-3-3-|-6-6-6-6-6-6-6-6--||-----------------|-------------------|
|------------------|------------------||-------------3---|---------------3---|


                  C/G                 G
  +H        E E E E   +H        E E E E
|-(3)-------3-3-----|-----------------3-|
|-(3)-------3-3---5-|-(5)-------5-5---3-|
|-(4)-------4-4---5-|-(5)-------5-5---4-|
|-(5)-------5-5---5-|-(5)-------5-5---5-|
|-(5)-------5-5---3-|-(3)-------3-3---5-|
|-(3)-------3-3---3-|-(3)-------3-3---3-|
|
|  E  E E E q   q      E  E E E q   q
|-------------------|-------------------|
|-------------------|-------------------|
|-------------------|-------------------|
|--5--5-5-5-5-------|--5--5-5-5-5-------|
|-------------------|-------------------|
|---------------3---|---------------3---|


                  C/G
  +H        E E E E   +H        E E E E
|-(3)-------3-3-----|-------------------|
|-(3)-------3-3---5-|-(5)---------------|
|-(4)-------4-4---5-|-(5)---------------|
|-(5)-------5-5---5-|-(5)---------------|
|-(5)-------5-5---3-|-(3)---------------|
|-(3)-------3-3---3-|-(3)---------0-1-2-|
|
|  E  E E E q   q      E  E E E q   q
|-------------------|-------------------|
|-------------------|-------------------|
|-------------------|-------------------|
|--5--5-5-5-5-------|--5--5-5-5-5-------|
|-------------------|-------------------|
|---------------3---|---------------3---|


 Interlude
  1.
  N.C.
  Gtr I
  E E E E q  q    E E E E q  q    E E E E q  q
|---------------|---------------|----------------||
|---------------|---------------|---------------o||
|---------------|---------------|----------------||
|-5-5-5-5-5-----|-5-5-5-5-5-----|-5-5-5-5-5------||
|---------------|---------------|---------------o||
|------------3--|------------3--|------------3---||


                                   Outro
  2.
                   D.S. al Coda &
  N.C.                              G             C/G                 G
  Gtr I                             Gtr II
  E E E E q  q    E E E E q  q      H       E E E E   +H        E E E E  6x
|---------------|---------------||--3-------3-3-----|-----------------3--||
|---------------|---------------||o-3-------3-3---5-|-(5)-------5-5---3-o||
|---------------|---------------||--4-------4-4---5-|-(5)-------5-5---4--||
|-5-5-5-5-5-----|-5-5-5-5-5-----||--5-------5-5---5-|-(5)-------5-5---5--||
|---------------|---------------||o-5-------5-5---3-|-(3)-------3-3---5-o||
|------------3--|------------3--||--3-------3-3---3-|-(3)-------3-3---3--||
|
|                                   Gtr I
| W               W                 E E E E q   q      E  E E E q   q    6x
|---------------|---------------||------------------|--------------------||
|---------------|---------------||o-----------------|-------------------o||
|---------------|---------------||------------------|--------------------||
|---------------|---------------||--5-5-5-5-5-------|--5--5-5-5-5--------||
|---------------|---------------||o-----------------|-------------------o||
|---------------|---------------||--------------3---|---------------3----||            
Submit corrections


        Gimme Some Lovin' lessons Hard to play? Try these video lessons and learn fast Gimme Some Lovin' lessons
        
↑ Back to top | Tablatures and chords for acoustic guitar and electric guitar, ukulele, drums are parodies/interpretations of the original songs. You may use it for private study, scholarship, research or language learning purposes only