» » »

Soundgarden - Pretty Noose Tabs

Artists:  A B C D E F G H I J K L M N O P Q R S T U V W X Y Z # 

Pretty Noose Tabs

(ver. 2) Click to play this song!
Soundgarden
 Rating:
4.3/5 (6 votes)

 Pretty Noose lessons Tabs too difficult? Try these video lessons and learn fast
 
                  Intro Riff
   gtr 1

e|--------------------------------------------------|-----------------------------------------------|
B|:-------------------------------------------------|----------------------------------------------:|
G|-----3b-(4)r------------------3b-(4)r-----5b-(7)--|-----3b-(4)r-----------------3b-(4)r-----------|
D|---5---------3-2------------5---------3-2---------|---5---------3-2-----------5---------2-3b-(4)--|
A|-3---------------1-1/3~---3-----------------------|-3---------------1-1/3~--3---------------------|
D|--------------------------------------------------|-----------------------------------------------|


  gtr 2

e|-----------------------------------------|
B|:---------------------------------------:|
G|---0--0--12~----0--0--12--10--8--10------|
D|-----------------------------------------|
A|-----------------------------------------|
D|-----------------------------------------|


  Verse Riff  
    gtr 1 & 2

e|----------------------------------------|---------------------------------------------|
B|----------------------------------------|--------------------------------------------:|
G|----------------------------------------|----------------------------5b-(7)-r(5)p0~---|
D|-5--5-5--7--8--8-8-\--1--1-1--2--3--3-3-|-5--5-5--7--8--8-8-\-3--3--------------------|
A|-5--5-5--7--8--8-8-\--1--1-1--2--3--3-3-|-5--5-5--7--8--8-8-\-3--3--------------------|
D|-5--5-5--7--8--8-8-\--1--1-1--2--3--3-3-|-5--5-5--7--8--8-8-\-3--3--------------------|


  PreChorus
    gtr 1 & 2

e|--------------------------------------------------------------|
B|--------------------------------------------------------------|
G|-------------------x-x--------x------------x--------x-x-x-x---|
D|-3-4-5--8-7-5--5-5-x-x-1--1-1-x-x-3--3-3-x-x-6--6-6-x-x-x-x---|
A|-3-4-5--8-7-5--5-5-x-x-1--1-1-x-x-3--3-3-x-x-6--6-6-x-x-x-x---|
D|-3-4-5--8-7-5--5-5-x-x-1--1-1-x-x-3--3-3-x-x-6--6-6-x-x-x-x---|


  Chorus                             Post-Chorus
    gtr 1 & 2

e|--------------------------------||------------------------|
B|:------------------------------:||------------------------|
G|-(8xs)---(8xs)----12~-12b-(14)--||--------x--------x-5~---|
D|-1----/6-6-----/9-9~------------||-5--5-5-x-1--1-1-x-5~---|
A|-1----/6-6-----/9-9~------------||-5--5-5-x-1--1-1-x-3~---|
D|-1----/6-6-----/9-9~------------||-5--5-5-x-1--1-1-x------|


  intro riff as Pre 2nd Verse *end / + 2nd Verse cont. play both
      gtr 1                                    end 
                                                *   +
e|------------------------------------------------|------------------------------------|
B|------------------------------------------------|------------------------------------|
G|----3b-(4)r----------------3b-(4)r-----/5b-(7)--|---3b-(4)r----------------3b-(4~)~--|
D|--5---------3-2----------5---------3-2----------|-5---------3-2----------5-----------|
A|----------------1-1/3--3------------------------|---------------1-1/3--3-------------|
D|------------------------------------------------|------------------------------------|

 
 ***2nd Verse gtr 2 plays verse above (xs = 3xs)

e|-------------------------------------------|
B|-------------------------------------------|
G|-(xs)--(xs)-(xs)--(xs)-(xs)---(xs)----5b~--|
D|-5---7-8----1---2-3----5----7-8----3~------|
A|-5---7-8----1---2-3----5----7-8----3~------|
D|-5---7-8----1---2-3----5----7-8----3-------|

preChorus                              Chorus                      Bridge (during solo)
  gtr 1 & 2                             gtr 1 & 2                      xs = 3xs

e|-----------------------------------||--------------------------||-----------------------------|
B|-----------------------------------||:------------------------:||:--------(xs)-(xs)----(xs)--:|
G|--------------(xs)-(xs)-(xs)-(xs)--||-(xs)-(xs)-(xs)-12b-(14)~-||-(xs)(xs)(xs)-5---(xs)(xs)---|
D|-3-4-5--8-7-5--5---1----3----6-----||-1----6----9--------------||-5---1---3----5---1---3------|
A|-3-4-5--8-7-5--5---1----3----6-----||-1----6----9--------------||-5---1---3----3---1---3------|
D|-3-4-5--8-7-5--5---1----3----6-----||-1----6----9--------------||-5---1---3--------1---3------|


  Solo
   with Wah pedal

e|------------------------------------|------------------------------------|
B|------------------------------------|------------------------------------|
G|--/17-15-20~--18h20-18-17-15~--16/--|-0-3-5b7--(7)--5--5p3p0-3-(3)--0----|
D|------------------------------------|------------------------------------|
A|------------------------------------|------------------------------------|
D|------------------------------------|------------------------------------|

e|----------------------------------------|----------------------------------------------|
B|----------------------------------------|----------------------------------------------|
G|--20~--17~-15-17b-(19)--12~-3h5p3p0-5h7-|-0~--10~--14~-(14)--12-14-12-14/17-15--12/0---|
D|----------------------------------------|----------------------------------------------|
A|----------------------------------------|----------------------------------------------|
D|----------------------------------------|----------------------------------------------|


  Bridge 2                              Outro                     End with
  gtr 1 & 2
                 4xs   * 4th end with                       2xs
e|--------------------|--------|       e|-----------------------||-----------------|
B|:------------------:|--------|       B|:---------------------:||-----------------|
G|----------------*---|---*----|       G|----------------12b~---||-----------------|
D|-3-3-5-5-8-8-7--3---|---5~---|       D|-1~----6~----9~--------||-3-4-5--8-7-6~~--|
A|-3-3-5-5-8-8-7--3---|---5~---|       A|-1~----6~----9~--------||-3-4-5--8-7-6~~--|
D|-3-3-5-5-8-8-7--3---|---5~---|       D|-1~----6~----9~--------||-3-4-5--8-7-6~~--|

            
Submit corrections


        Pretty Noose lessons Hard to play? Try these video lessons and learn fast Pretty Noose lessons
        
↑ Back to top | Tablatures and chords for acoustic guitar and electric guitar, ukulele, drums are parodies/interpretations of the original songs. You may use it for private study, scholarship, research or language learning purposes only