» » »

Soundgarden - Mind Riot Tabs

Artists:  A B C D E F G H I J K L M N O P Q R S T U V W X Y Z # 

Mind Riot Tabs

(ver. 2) Click to play this song!
Soundgarden
 Rating:
4.2/5 (13 votes)

 Mind Riot lessons Tabs too difficult? Try these video lessons and learn fast
 
                [Intro]
    E
    Gtr I
E|-----------------------------------|
E|-----------------------------------|
E|-----------------------------------|
E|-----------------------------------| x2
E|--0-0-0-0--0--0-0--0-0-0-0--0--0-0-|
E|--0-0-0-0--0--0-0--0-0-0-0--0--0-0-|


  Eadd2
E|----------------------------------------------------|
E|----------------------------------------------------|
E|----------------------------------------------------|
E|-------7_9-(9)-------------------7_9-(9)------------|
E|-0-0-0------0---0-0-0-0-0--0-0-0------0---0-0-0-0-0-|
E|-0-0--------0---0-0-0-0-0--0-0--------0---0-0-0-0-0-|


  Eadd2         B5 A5   Eadd2              B5 A5
E|----------------------------------------------------|
E|----------------------------------------------------|
E|----------------------------------------------------|
E|-------7_9-(9)-7\5-5-------------7_9-(9)-7\5-5------|
E|-0-0-0------0--7\5-5--0-0--0-0-0------0--7\5-5--0-0-|
E|-0-0--------0---------0-0--0-0--------0---------0-0-|


  Eadd2
E|----------------------------------------------------|
E|----------------------------------------------------|
E|----------------------------------------------------|
E|-------7_9-(9)-------------------7_9-(9)------------|
E|-0-0-0------0---0-0-0-0-0--0-0-0------0---0-0-0-0-0-|
E|-0-0--------0---0-0-0-0-0--0-0--------0---0-0-0-0-0-|


  Eadd2         B5 A5   Eadd2             B5 A5
E|-----------------------------------------------------|
E|-----------------------------------------------------|
E|-----------------------------------------------------|
E|-------7_9-(9)-7\5-5-------------7_9-(9)-7\5-5--(5)\-|
E|-0-0-0------0--7\5-5--0-0--0-0-0------0--7\5-5--(5)\-|
E|-0-0--------0---------0-0--0-0--------0--------------|


  Eadd2            E
  Gtrs I & II
E|------------------------------------|
E|------------------------------------|
E|-2_4_2_0--0---0---2_4_2_0--0-(0)----|
E|----------2---2------------4-(4)----|
E|-------0--2---2---------0--4-(4)----|
E|-------0----------------0-----------|


  Eadd2             E
E|---------------------------------|
E|---------------------------------|
E|-2_4_2_0--0---0---2_4_2_0--0-----|
E|----------2---2------------4-----|
E|-------0--2---2---------0--4-----|
E|-------0----------------0--------|


  Eadd2             E             Eadd2          
E|----------------------------------------------------|
E|----------------------------------------------------|
E|-2_4_2_0--0---0---2_4_2_0--0------2_4_2_0--0--------|
E|----------2---2------------4---------------2--------|
E|-------0--2---2---------0--4------------0--2--0-2-3-|
E|-------0----------------0---------------0-----0-2-3-|


[Theme]
    E5
               ~~~~~~~            ~~
E|----------------------------------------|
E|------------12--------------------------|
E|------------12--------------------------|
E|------------12--------------------------| x2
E|--0-0-0-0-0---------0-0-3---3--2--0-2-3-|
E|--0-0-0-0-0---------0-0-3---3--2--0-2-3-|


[Verse 1]
     E5
               ~~~~~~~            ~~
E|----------------------------------------|
E|------------12--------------------------|
E|------------12--------------------------|
E|------------12--------------------------| x8
E|--0-0-0-0-0---------0-0-3---3--2--0-2-3-|
E|--0-0-0-0-0---------0-0-3---3--2--0-2-3-|


[Pre-Chorus]
  A#°                  F#7
  Gtr I
E|-0-0-0-0--0-0-0---0-0-0-0--------|
E|-6-6-6-6--6-6-6\--2-2-2-2--------|
E|-6-6-6-6--6-6-6\--2-2-2-2--0-3-0-|
E|-6-6-6-6--6-6-6\--2-2-2-2--------|
E|---------------------------------|
E|---------------------------------|
 | Gtr II
E|-0-0-0-0--0-0-0---0-0-0-0--0-0-0-|
E|-9-9-9-9--9-9-9\--6-6-6-6--6-6-6-|
E|-9-9-9-9--9-9-9\--6-6-6-6--6-6-6-|
E|-9-9-9-9--9-9-9\--6-6-6-6--6-6-6-|
E|---------------------------------|
E|---------------------------------|


  A                 E5
E|-0-0-0-0-0-0-0-0--0-0-0-0---------|
E|-5-5-5-5-5-5-5-5--0-0-0-0---------|
E|-5-5-5-5-5-5-5-5--0-0-0-0--0-3-2--|
E|-5-5-5-5-5-5-5-5--0-0-0-0---------|
E|----------------------------------|
E|----------------------------------|
 |
E|-0-0-0-0-0-0-0-0--0-0-0-0--0-0-0--|
E|-9-9-9-9-9-9-9-9--7-7-7-7--7-7-7--|
E|-9-9-9-9-9-9-9-9--7-7-7-7--7-7-7--|
E|-9-9-9-9-9-9-9-9--7-7-7-7--7-7-7--|
E|----------------------------------|
E|----------------------------------|


  F#7                             
E|-0-0-0-0--0-0-0--0-0-0-0--------|
E|-2-2-2-2--2-2-2--2-2-2-2--------|
E|-2-2-2-2--2-2-2--2-2-2-2--------|
E|-2-2-2-2--2-2-2--2-2-2-2--------|
E|--------------------------0-2-3-|
E|--------------------------0-2-3-|
 |
E|-0-0-0-0--0-0-0--0-0-0-0--------|
E|-6-6-6-6--6-6-6--6-6-6-6--------|
E|-6-6-6-6--6-6-6--6-6-6-6--------|
E|-6-6-6-6--6-6-6--6-6-6-6--------|
E|--------------------------------|
E|--------------------------0-2-3-|


[Theme]
    E5                  
    Gtrs I, II
               ~~~~~            ~~~
E|---------------------------------------|
E|-----------12--------------------------|
E|-----------12--------------------------|
E|-----------12--------------------------| x2
E|-0-0-0-0-0---------0-0-3---3--2--0-2-3-|
E|-0-0-0-0-0---------0-0-3---3--2--0-2-3-|


[Verse 2]
    E                    
                           ~~~
E|----------------------------------|
E|----12_14-12----------------------|
E|----12_14-12----------------------|
E|----------------------------------| x8
E|-0------------0-0-3---3--2--0-2-3-|
E|-0------------0-0-3---3--2--0-2-3-|


[Pre-Chorus]
  A#°                  F#7
  Gtr I
E|-0-0-0-0--0-0-0---0-0-0-0--------|
E|-6-6-6-6--6-6-6\--2-2-2-2--------|
E|-6-6-6-6--6-6-6\--2-2-2-2--0-3-0-|
E|-6-6-6-6--6-6-6\--2-2-2-2--------|
E|---------------------------------|
E|---------------------------------|
 | Gtr II
E|-0-0-0-0--0-0-0---0-0-0-0--0-0-0-|
E|-9-9-9-9--9-9-9\--6-6-6-6--6-6-6-|
E|-9-9-9-9--9-9-9\--6-6-6-6--6-6-6-|
E|-9-9-9-9--9-9-9\--6-6-6-6--6-6-6-|
E|---------------------------------|
E|---------------------------------|


  A                 E5
E|-0-0-0-0-0-0-0-0--0-0-0-0---------|
E|-5-5-5-5-5-5-5-5--0-0-0-0---------|
E|-5-5-5-5-5-5-5-5--0-0-0-0--0-3-2--|
E|-5-5-5-5-5-5-5-5--0-0-0-0---------|
E|----------------------------------|
E|----------------------------------|
 |
E|-0-0-0-0-0-0-0-0--0-0-0-0--0-0-0--|
E|-9-9-9-9-9-9-9-9--7-7-7-7--7-7-7--|
E|-9-9-9-9-9-9-9-9--7-7-7-7--7-7-7--|
E|-9-9-9-9-9-9-9-9--7-7-7-7--7-7-7--|
E|----------------------------------|
E|----------------------------------|


  F#7                             
E|-0-0-0-0--0-0-0--0-0-0-0--------|
E|-2-2-2-2--2-2-2--2-2-2-2--------|
E|-2-2-2-2--2-2-2--2-2-2-2--------|
E|-2-2-2-2--2-2-2--2-2-2-2--------|
E|--------------------------0-2-3-|
E|--------------------------0-2-3-|
 |
E|-0-0-0-0--0-0-0--0-0-0-0--------|
E|-6-6-6-6--6-6-6--6-6-6-6--------|
E|-6-6-6-6--6-6-6--6-6-6-6--------|
E|-6-6-6-6--6-6-6--6-6-6-6--------|
E|--------------------------------|
E|--------------------------0-2-3-|



[Chorus]
  E5  D#5   E5  B5   D5  A5 G#5 E5 E
E|-----11---12--7----10--5---4--0--0-0-0-0--0-0-0-|
E|-----11---12--7----10--5---4--0--4-4-4-4--4-4-4-|
E|-----11---12--7----10--5---4--0--4-4-4-4--4-4-4-|
E|-----11---12--7----10--5---4--0--4-4-4-4--4-4-4-|
E|------------------------------------------------|
E|------------------------------------------------|
 |
E|---------------------------------0-0-0-0--0-0-0-|
E|---------------------------------4-4-4-4--4-4-4-|
E|---------------------------------4-4-4-4--4-4-4-|
E|---------------------------------4-4-4-4--4-4-4-|
E|-0----------------------------------------------|
E|-0----------------------------------------------|


  E5   D#5  E5  B5   D5  A5 G#5 E5
E|-----11---12--7----10--5---4--0-|
E|-----11---12--7----10--5---4--0-|
E|-----11---12--7----10--5---4--0-|
E|-----11---12--7----10--5---4--0-|
E|--------------------------------|
E|--------------------------------|
 |
E|--------------------------------|
E|--------------------------------|
E|--------------------------------|
E|--------------------------------|
E|-0------------------------------|
E|-0------------------------------|


[Pre-Chorus]
  A#°                  F#7
  Gtr I
E|-0-0-0-0--0-0-0---0-0-0-0--------|
E|-6-6-6-6--6-6-6\--2-2-2-2--------|
E|-6-6-6-6--6-6-6\--2-2-2-2--0-3-0-|
E|-6-6-6-6--6-6-6\--2-2-2-2--------|
E|---------------------------------|
E|---------------------------------|
 | Gtr II
E|-0-0-0-0--0-0-0---0-0-0-0--0-0-0-|
E|-9-9-9-9--9-9-9\--6-6-6-6--6-6-6-|
E|-9-9-9-9--9-9-9\--6-6-6-6--6-6-6-|
E|-9-9-9-9--9-9-9\--6-6-6-6--6-6-6-|
E|---------------------------------|
E|---------------------------------|


  A                 E5
E|-0-0-0-0-0-0-0-0--0-0-0-0---------|
E|-5-5-5-5-5-5-5-5--0-0-0-0---------|
E|-5-5-5-5-5-5-5-5--0-0-0-0--0-3-2--|
E|-5-5-5-5-5-5-5-5--0-0-0-0---------|
E|----------------------------------|
E|----------------------------------|
 |
E|-0-0-0-0-0-0-0-0--0-0-0-0--0-0-0--|
E|-9-9-9-9-9-9-9-9--7-7-7-7--7-7-7--|
E|-9-9-9-9-9-9-9-9--7-7-7-7--7-7-7--|
E|-9-9-9-9-9-9-9-9--7-7-7-7--7-7-7--|
E|----------------------------------|
E|----------------------------------|


  F#7                             
E|-0-0-0-0--0-0-0--0-0-0-0--------|
E|-2-2-2-2--2-2-2--2-2-2-2--------|
E|-2-2-2-2--2-2-2--2-2-2-2--------|
E|-2-2-2-2--2-2-2--2-2-2-2--------|
E|--------------------------0-2-3-|
E|--------------------------0-2-3-|
 |
E|-0-0-0-0--0-0-0--0-0-0-0--------|
E|-6-6-6-6--6-6-6--6-6-6-6--------|
E|-6-6-6-6--6-6-6--6-6-6-6--------|
E|-6-6-6-6--6-6-6--6-6-6-6--------|
E|--------------------------------|
E|--------------------------0-2-3-|



[Chorus]
  E5  D#5   E5  B5   D5  A5 G#5 E5 E
E|-----11---12--7----10--5---4--0--0-0-0-0--0-0-0-|
E|-----11---12--7----10--5---4--0--4-4-4-4--4-4-4-|
E|-----11---12--7----10--5---4--0--4-4-4-4--4-4-4-|
E|-----11---12--7----10--5---4--0--4-4-4-4--4-4-4-|
E|------------------------------------------------|
E|------------------------------------------------|
 |
E|---------------------------------0-0-0-0--0-0-0-|
E|---------------------------------4-4-4-4--4-4-4-|
E|---------------------------------4-4-4-4--4-4-4-|
E|---------------------------------4-4-4-4--4-4-4-|
E|-0----------------------------------------------|
E|-0----------------------------------------------|


  E5   D#5  E5  B5   D5  A5 G#5 E5
E|-----11---12--7----10--5---4--0-|
E|-----11---12--7----10--5---4--0-|
E|-----11---12--7----10--5---4--0-|
E|-----11---12--7----10--5---4--0-|
E|--------------------------------|
E|--------------------------------|
 |
E|--------------------------------|
E|--------------------------------|
E|--------------------------------|
E|--------------------------------|
E|-0------------------------------|
E|-0------------------------------|


[Bridge]
  G/F
  Gtrs I & II
E|-3-3-3-3--3-3-3--3-3-3-3--3-3-3-|
E|-3-3-3-3--3-3-3--3-3-3-3--3-3-3-|
E|-3-3-3-3--3-3-3--3-3-3-3--3-3-3-|
E|-1-1-1-1--1-1-1--1-1-1-1--1-1-1-|
E|-1-1-1-1--1-1-1--1-1-1-1--1-1-1-|
E|-1-1-1-1--1-1-1--1-1-1-1--1-1-1-|


  F#
E|-2-2-2-2--2-2-2--2-2-2-2--2-2-2--|
E|-2-2-2-2--2-2-2--2-2-2-2--2-2-2--|
E|-2-2-2-2--2-2-2--2-2-2-2--2-2-2--|
E|-2-2-2-2--2-2-2--2-2-2-2--2-2-2--|
E|-2-2-2-2--2-2-2--2-2-2-2--2-2-2--|
E|-2-2-2-2--2-2-2--2-2-2-2--2-2-2--|


     E5                  
    Gtrs I, II
               ~~~~~            ~~~
E|---------------------------------------|
E|-----------12--------------------------|
E|-----------12--------------------------|
E|-----------12--------------------------| x8
E|-0-0-0-0-0---------0-0-3---3--2--0-2-3-|
E|-0-0-0-0-0---------0-0-3---3--2--0-2-3-|


  E5
E|-0-------------|
E|-0-------------|
E|-0-------------|
E|-0-------------|
E|-0-------------|
E|-0-------------|            
Submit corrections


        Mind Riot lessons Hard to play? Try these video lessons and learn fast Mind Riot lessons
        
↑ Back to top | Tablatures and chords for acoustic guitar and electric guitar, ukulele, drums are parodies/interpretations of the original songs. You may use it for private study, scholarship, research or language learning purposes only