Home » S » Soundgarden »

Soundgarden - An Unkind Tabs

Artists:  A B C D E F G H I J K L M N O P Q R S T U V W X Y Z # 

An Unkind Tabs

(ver. 1) Click to play this song!
Soundgarden
#





AN UNKIND
SOUDGARDEN



The only real difficulty with this song is to keep up the speed
during the whole song. it's actually pretty hard to keep it up
without getting tired...
But besides that, the song is very simple.
Listen to the song several times to get it right.

It's in standard tuning.


Riff 1:
e:-------------------------------------------------------
B:-------------------------------------------------------
G:-------------------------------------------------------
D:-------------------------------------------------------
A:--2p0------------2p0------------22222222-2p0-----------
E:------2-2-2222-------2-2-2222----------------2-2-2222--

Play this once for the intro and then six times during the
verse.
During the verse, it's doubled by a second guitar.



Then rigth before the chorus, there's this:
e:------------------------------------------------------------
B:------------------------------------------------------------
G:------------------------------------------------------------
D:------------------------------------------------------------
A:--2p0---2p0---2p0---2p0---2--2222222222222222-2p0-----------
E:------2-----2-----2-----2-------------------------2-2-2222--

Doubled by this:
e:------------------------------------------------------------
B:--4p2---4p2---4p2---4p2---4--4444444444444444-4p2-----------
G:------4-----4-----4-----4-------------------------4-4-4444--
D:------------------------------------------------------------
A:------------------------------------------------------------
E:------------------------------------------------------------



Chorus:
e:-----------------------------------------------------------
B:-----------------------------------------------------------
G:-----------------------------------------------------------
D:--5--4---0----4--5---2----------5--4---0----4--5---7--2----
A:--5--4---0----4--5---2----------5--4---0----4--5---7--2----
E:---------2-----------0-----------------2-----------5--0----
    On          the    storm,its  time        to     go

Verse 2:
Riff 1, X6

Chorus:
Same as the first.

then play riff 1, X4 and that sort of pre chorus, and the chorus
again.

Outro:
e:-------------------------------------------------
B:-------------------------------------------------
G:-------------------------------------------------
D:-----------------4--7--------------------4--7----
A:--2p0------------4--7-----2p0------------4--7----
E:------2-2-2222---2--5---------2-2-2222---2--5----


e:-------------------------------------------------
B:-------------------------------------------------
G:-----------------------------------------4-------
D:-----------------4--7--------------------4--4----
A:--2p0------------4--7-----2p0------------2--4----
E:------2-2-2222---2--5---------2-2-2222------2----


LYRICS
We see the vipers of distance
Crawl into our lives everyday
Breeding our Edens of hatred
Pathetically stupid and unkind
We couldn't look a saint in the eyes

On the storm
It's time to go
On the storm 
It's time to go

Marching in lines of contradiction
Forgetting the history we make
Loving our hangmen as the penultimate joke
We lack the Moses
To look a saint in the eyes

(Chorus)
  
(Chorus)



Well,that's what i know for this song...

Have fun, Did you know that milk was healthy ?
                                                J.P.
                                     
            
Submit corrections

↑ Back to top | Tablatures and chords for acoustic guitar and electric guitar, ukulele, drums are parodies/interpretations of the original songs. You may use it for private study, scholarship, research or language learning purposes only