Home » S » Sons Of Bill »

Sons Of Bill - Whispering Tabs

Artists:  A B C D E F G H I J K L M N O P Q R S T U V W X Y Z # 

Whispering Tabs

(ver. 1) Click to play this song!
Sons Of Bill
Whispering by Sons of Bill

Capo 3 (tablature relative to capo)

Intro (Sam's Electric)
e--------0-------0------0---0-------------0----0---------0--------0------|
B----5-----5---4---4---0---0-----------5----5----5----4----4---0---------|
G--6---6-----6----------------------6------------------------------------|
D------------------------------------------------------------------------|
A--------------------------------0---------------------------------------|
E------------------------------------------------------------------------|


e------------0------------------0----------------------0---------------|
B---------0----0----0--------0----0-----0------------0---0----0--------|
G------6----------6-------6----------6------------6---------6----------|
D----------------------------------------------------------------------|
A---4-------------------2----------------------------------------------|
E---------------------------------------------5------------------------|


e-----------0-------------|
B---------0---0---0-------|
G------6--------6---------|
D-------------------------|
A-------------------------|
E---3---------------------|


Post Inro and Verse Chords

D-G-D-Cadd9
G/Em-Asus-G

D                            G
Measured out the day in tablespoons of caffiene
D                                         Cadd9
Its Eight o clock in the mornin and I'm still too drunk to dream
D                               G
Read the Sunday paper leave my Bible up there on the shelf
D                                 Cadd9
I don't believe in angels but I still believe in hell

D                               G
City lights shine down on the streets of NYC
D                                   Cadd9
Reflecting off the cars and all the people that you see
D                                               G
There's no sound coming out of the speakers my radio's been stolen
G/Em             Asus           Cadd9
The only sound I hear is the ringing in my ears


Chorus

G/Em            Asus               Cadd9
There's no more time for me to stay here
G/Em            Asus        Cadd9
Waste another minute I may spend another year
G/Em       Asus         Cadd9
Thoughts erase those feelings in my head
G/Em       Asus                 G
Whispering you'll see the stars tonight

(back to D-G-D-Cadd9)


lick for verse

e-2-2--2--2h3--2--0-3-----------------|
B-3-----------------3--3--3--1--0-----|
G-2-----------------0-------------2---|
D-0-----------------0-----------------|
A-------------------2-----------------|
E-------------------3-----------------|
            
Submit corrections

↑ Back to top | Tablatures and chords for acoustic guitar and electric guitar, ukulele, drums are parodies/interpretations of the original songs. You may use it for private study, scholarship, research or language learning purposes only