Home » S » Soja »

Soja - You And Me Tabs

Artists:  A B C D E F G H I J K L M N O P Q R S T U V W X Y Z # 

You And Me Tabs

(ver. 2) Click to play this song!
Soja
(Intro)
You and Me-SOJA (Credit to my friend Will who started me off)
Please let me know if there are corrections/or a better sounding way. THX

intro/verse break/& outro (aka: the violin sounding part)


e|-----0--7--5--3-|-0h3----|0--7--5--3-|3--4--5------------------|
B|----------------|-------3|-----------|-------------------------|
G|----------------|--------|-----------|-------------------------|
D|----------------|--------|-----------|-------------------------|
A|----------------|--------|-----------|-------------------------|
E|----------------|--------|-----------|-------------------------|


e|0--12--10--9--10--9--7--3--3h4--5|-----0--7--5--3-|-0h3----|
B|---------------------------------|----------------|-------3|
G|---------------------------------|----------------|--------|
D|---------------------------------|----------------|--------|
A|---------------------------------|----------------|--------|
E|---------------------------------|----------------|--------|
            
Submit corrections

↑ Back to top | Tablatures and chords for acoustic guitar and electric guitar, ukulele, drums are parodies/interpretations of the original songs. You may use it for private study, scholarship, research or language learning purposes only