Home » S » Soja »

Soja - You And Me Bass

Artists:  A B C D E F G H I J K L M N O P Q R S T U V W X Y Z # 

You And Me Bass

(ver. 1) Click to play this song!
Soja
Tuning:Standard

Intro/Outro:
G|---------------------------------------------------------------------------|
D|--------2-----0----------2-----0----------2-----0----------2-----0---------|
A|---3----------------3----------------3----------------3--------------------|
E|---------------------------------------------------------------------------|

When singing begins:
G|---------------------------------------------------------------------------|
D|-----------222-22-5-0---0-000-5-0------------------------------------------|
A|---3-33-3-------------3--3-------------------------------------------------|
E|---------------------------------------------------------------------------|

            
Submit corrections

↑ Back to top | Tablatures and chords for acoustic guitar and electric guitar, ukulele, drums are parodies/interpretations of the original songs. You may use it for private study, scholarship, research or language learning purposes only