Home » S » Soja »

Soja - Here I Am Bass

Artists:  A B C D E F G H I J K L M N O P Q R S T U V W X Y Z # 

Here I Am Bass

(ver. 1) Click to play this song!
Soja
Play this for the first time through the intro
G|-------------------------------------------------------------------------|
D|-------------------------------------------------------------------------|
A|--2-----5----------------------------------------------------------------|x1
E|----3-------5------------------------------------------------------------|
B|-------------------------------------------------------------------------|

Then for basically the rest of the song play this

G|---------------------------------------------------------------------------|
D|---------------------------------------------------------------------------|
A|-------------------------------12------------------------------------------|
E|--12-10----10--8--------10--12------10-12-----10-12------------------------|
B|--------12-------888---------------------10----------10--------------------|

Thats it. I tabbed it by ear so its not perfect, but there was no tabs on here for it so 
i thought i should give it a try.
            
Submit corrections

↑ Back to top | Tablatures and chords for acoustic guitar and electric guitar, ukulele, drums are parodies/interpretations of the original songs. You may use it for private study, scholarship, research or language learning purposes only