» » »

Smashing Pumpkins - The Everlasting Gaze Tabs

Artists:  A B C D E F G H I J K L M N O P Q R S T U V W X Y Z # 

The Everlasting Gaze Tabs

(ver. 1) Click to play this song!
Smashing Pumpkins
 Rating:
4/5 (4 votes)
                The Everlasting Gaze by the Smashing Pumpkins
Written by Billy Corgan

Since the tab currently in the archive sux so badly, i had to write my own.

Tuned 2 steps down
Intro/Verse
-----------------    
-----------------
-----------------
-----------------
-------2-3-------
---0-0-----1-1-0-

Fill
---0--
---5--
-7b9--
------
------
------

Pre-Chorus
------------------------
------------------------
------------------------
---------2---------2~~~-
-----0-2---2-0----------
---0-----------3-0------

Chorus
Em G Dsus2 Am7
Em Dsus2 Am

Outro
------------
------------
------------   et
------------  cetera
------------
---0-0--0-0-

---------------------------
---------------------------
---------------------------
-----------7~~-------------
---------------5h7-5h7-8p7-
---0-0-0-0-----0-----------

---------------------------
---------------------------
---------------------------
-----------7~~-------------
---------------5h7-5h7-3p2-
---0-0-0-0-----0-----------


SONG STRUCTURE (i think this is right)
Intro
Verse (First Bass Alone, then guitar)
Prechorus
Chorus
Verse
Prechorus
Chorus
A cappella part
Prechorus
Outro
            
Submit corrections

↑ Back to top | Tablatures and chords for acoustic guitar and electric guitar, ukulele, drums are parodies/interpretations of the original songs. You may use it for private study, scholarship, research or language learning purposes only