» » »

Smashing Pumpkins - Thats The Way My Love Is Tabs

Artists:  A B C D E F G H I J K L M N O P Q R S T U V W X Y Z # 

Thats The Way My Love Is Tabs

(ver. 1) Click to play this song!
Smashing Pumpkins
 Rating:
4/5 (4 votes)

 Thats The Way My Love Is lessons Tabs too difficult? Try these video lessons and learn fast
 
                Hola/ Hi everyone, I decided to submit the way i play this song, i know it´s not perfet, 
for me sounds ok, specially on acoustic guitar (Also on electric sounds right). The 
of this tab is only for entertainment. Asi que a disfrutar! jajaja...

Pumpkins Forever!

Enjoy!

Tuning Eb (Standar SP tuning)

Start  (Fast Picking) and Verse ( "They say that life ain´t easy...")

x4
|---1-----------------------------------------------------------|
|---1-------------------1---------------------------------------|
|---3-------------------3---------------------------------------|
|---3-------------------3---------------------------------------|
|---1-------------------0---------------------------------------|
|---------------------------------------------------------------|


("destroy all up all good reason, how i´m alive")


|---------------------------------------------------------------|
|---3---------1---------3---------3-----------------------------|
|---3---------3---------3---------3-----------------------------|
|---3---------3---------3---------3-----------------------------|
|---x---------0---------x---------x-----------------------------|
|---3-------------------1---------3-----------------------------|


("They´ll say that nothing matter...")

X2
|---1-----------------------------------------------------------|
|---1-------------------1---------------------------------------|
|---3-------------------3---------------------------------------|
|---3-------------------3---------------------------------------|
|---1-------------------0---------------------------------------|
|---------------------------------------------------------------|

("Of course i love you baby...")

|-------------------------------------------------------------|
|---3---------1---------3---------1--------1--------1---------|
|---3---------3---------3---------3--------3--------3---------|
|---3---------3---------3---------3--------3--------3---------|
|---x---------0---------x---------1--------0--------1---------|
|---3-------------------1-------------------------------------|

("whenever i call..." til´  "...whanever is here")


|-------------------------------------------------------------|
|-----1---------3---------1----------3-----------1------------|
|-----0---------3---------0----------3-----------0------------|
|-----2---------3---------2----------3-----------2------------|
|-----3---------x---------3----------x-----------3------------|
|---------------3--------------------3------------------------|


("...and now")

|--------------0---------1-----------------------|
|----1---------1---------3-----------------------|
|----3---------2---------2-----------------------|
|----3---------2---------0-----------------------|
|----1---------0---------------------------------|
|------------------------------------------------|

_Chorus_ ("That´s the way, my love is")
------------------------------------------------------

|--------------0---------1-----------------------|
|----1---------1---------3-----------------------|
|----3---------2---------2-----------------------|
|----3---------2---------0-----------------------|
|----1---------0---------------------------------|
|------------------------------------------------|

("That´s the way I care")

|--------------0---------1--------3---------------|
|----1---------1---------3--------3---------------|
|----3---------2---------2--------0---------------|
|----3---------2---------0--------0---------------|
|----1---------0------------------x---------------|
|---------------------------------3---------------|

("You should call on me baby")

|--------------0---------1------------------------|
|----1---------1---------3-------1----------------|
|----3---------2---------2-------0----------------|
|----3---------2---------0-------2----------------|
|----1---------0-----------------3----------------|
|-------------------------------------------------|


("I´m always there for you")

x2
|--------------0---------1-----------------------|
|----1---------1---------3-----------------------|
|----3---------2---------2-----------------------|
|----3---------2---------0-----------------------|
|----1---------0---------------------------------|
|------------------------------------------------|


------------------------------------------------------
_End of Chorus_

("They´ll say you´ll lose your nerve soon...")

|-----------------------------1------------------------|
|----1------------3-----------3------------------------|
|----2------------3-----------2------------------------|
|----2------------3-----------0------------------------|
|----0------------x------------------------------------|
|-----------------3------------------------------------|


("with no belief...")

x2
|--------------0---------1-----------------------|
|----1---------1---------3-----------------------|
|----3---------2---------2-----------------------|
|----3---------2---------0-----------------------|
|----1---------0---------------------------------|
|------------------------------------------------|


Bridge

For the bridge, i like to play this:

All x2
|-------------------------------------------------------|
|----------6-----------6-------------6-------------6----|
|-------7-----7-----7-----7------7-------7------7-----7-|
|----8-----------8------------8--------------8----------|
|-------------------------------------------------------|
|-------------------------------------------------------|

|-------------------------------------------------------|
|----------6-----------6-------------6-------------6----|
|-------5-----5-----5-----5------5-------5------5-----5-|
|----7-----------7------------0--------------0----------|
|-------------------------------------------------------|
|-------------------------------------------------------|


Or you can play in this way: (there are multiple ways to play the bridge)

|--------8-8--6------8-8--6-------8-8--6--------8-8--6--|
|-------------------------------------------------------|
|-------------------------------------------------------|
|----8-----------8------------8-------------8-----------|
|-------------------------------------------------------|
|-------------------------------------------------------|


|--------8-8--5------8-8--5-------8-8--5--------8-8--5--|
|-------------------------------------------------------|
|-------------------------------------------------------|
|----7-----------7------------0-------------0-----------|
|-------------------------------------------------------|
|-------------------------------------------------------|


SOLO


Guitar Background

-Play Chorus

-Lead Guitar: (wah effect please!!! :) )

|------------------------------10-------------10----------------------------|
|---6/13~-----------6/13-13-13-----10\---13x6-----10------------------------|
|---------14-15-14\------------------------------------12p10---12--10h12/15-|
|---------------------------------------------------------------------------|
|---------------------------------------------------------------------------|
|---------------------------------------------------------------------------|

|----------------------------------------------------------------------------|
|----------------------------15\13~------------------------------------------|
|----15\14----12b13---10-----------------------------------------------------|
|----------------------------------------------------------------------------|
|----------------------------------------------------------------------------|
|----------------------------------------------------------------------------|


(" I feel a coming age now...")

x2
|--------------------------------------------------------|
|-----1---------3---------1----------3-------------------|
|-----0---------3---------0----------3-------------------|
|-----2---------3---------2----------3-------------------|
|-----3---------x---------3----------x-------------------|
|---------------3--------------------3-------------------|


(" A certain sun...")

|--------------0---------1------------------------|
|----1---------1---------3-------1----------------|
|----3---------2---------2-------0----------------|
|----3---------2---------0-------2----------------|
|----1---------0-----------------3----------------|
|-------------------------------------------------|


("On my belief...")

|--------------0---------1-----------------------|
|----1---------1---------3-----------------------|
|----3---------2---------2-----------------------|
|----3---------2---------0-----------------------|
|----1---------0---------------------------------|
|------------------------------------------------|


Final Chorus:

("That´s the way...")

|--------------0---------1-----------------------|
|----1---------1---------3-----------------------|
|----3---------2---------2-----------------------|
|----3---------2---------0-----------------------|
|----1---------0---------------------------------|
|------------------------------------------------|

("That´s the way I care")

|--------------0---------1--------3---------------|
|----1---------1---------3--------3---------------|
|----3---------2---------2--------0---------------|
|----3---------2---------0--------0---------------|
|----1---------0------------------x---------------|
|---------------------------------3---------------|

("You should call on me baby")

|--------------0---------1------------------------|
|----1---------1---------3-------1----------------|
|----3---------2---------2-------0----------------|
|----3---------2---------0-------2----------------|
|----1---------0-----------------3----------------|
|-------------------------------------------------|


("I´m always there for you")

|--------------0---------1-----------------------|
|----1---------1---------3-----------------------|
|----3---------2---------2-----------------------|
|----3---------2---------0-----------------------|
|----1---------0---------------------------------|
|------------------------------------------------|


("That´s the way...")

|--------------0---------1-----------------------|
|----1---------1---------3-----------------------|
|----3---------2---------2-----------------------|
|----3---------2---------0-----------------------|
|----1---------0---------------------------------|
|------------------------------------------------|

("That´s the way I care")

|--------------0---------1--------3---------------|
|----1---------1---------3--------3---------------|
|----3---------2---------2--------0---------------|
|----3---------2---------0--------0---------------|
|----1---------0------------------x---------------|
|---------------------------------3---------------|

("You should call on me baby")

|--------------0---------1------------------------|
|----1---------1---------3-------1----------------|
|----3---------2---------2-------0----------------|
|----3---------2---------0-------2----------------|
|----1---------0-----------------3----------------|
|-------------------------------------------------|

Outro


Arpegio on Chords Bb, Am, Dm  x2


like this for example:

x2
|------------------------------------1-----------1---------------|
|----------3-----------1----------------3-----3------------------|
|-------------3-----------2-------2--------2---------------------|
|-------3-----------2----------0---------------------------------|
|----1-----------0-----------------------------------------------|
|----------------------------------------------------------------|

End on Dm

Hope you like it!
Greetings from the sunny Andalusia!!!
            
Submit corrections


        Thats The Way My Love Is lessons Hard to play? Try these video lessons and learn fast Thats The Way My Love Is lessons
        
↑ Back to top | Tablatures and chords for acoustic guitar and electric guitar, ukulele, drums are parodies/interpretations of the original songs. You may use it for private study, scholarship, research or language learning purposes only