» » »

Smashing Pumpkins - Stand Inside Your Love Tabs

Artists:  A B C D E F G H I J K L M N O P Q R S T U V W X Y Z # 

Stand Inside Your Love Tabs

(ver. 2) Click to play this song!
Smashing Pumpkins
 Rating:
4/5 (4 votes)


 Stand Inside Your Love lessons Tabs too difficult? Try these video lessons and learn fast
 
                Tuning:Eb,Ab,Db,Gb,Bb,Eb (low to high)

Intro/Verse: 4x (clean)
|------------------------------------------------------------------|
|-----3--------3-------3--------3-----3-------3-------3--------3---|
|-------0--------0-----------0----------0-------0------------0-----|
|--4------4--------4---------------4------4-------4----------------|
|------------------------------------------------------------------|
|-------------------------0-------------------------------0--------|

|------------------------------------------------0------|
|-----3--------3-----------------------3---------0------|
|-------2--------2-----2--------2--------2--------------|
|---------0--------0---------2-------------0------------|
|--2----------------------0---------2--------0----------|
|-------------------------------------------------------|

1st Chorus: Guitar 1&2 (distorted) (guitar 1 always plays this chorus)
     G     Gmaj7         D          A           G      Gmaj7
|----3-------2-----------2----------0-----------3--------2-----|
|----0-------3-----------3----------2-----------0--------3-----|
|----0-------0-----------2----------2-----------0--------0-----|
|----0-------0-----------0----------2-----------0--------0-----|
|----2-------0----------------------0-----------2--------0-----|
|----3-------3----------------------------------3--------3-----|

   D             A   Em7     D            A             Em7
|--2-------------0----0------2------------0--------------0--|
|--3-------------2----3------3------------2--------------3--|
|--2-------------2----0------2------------2--------------0--|
|--0-------------2----2------0------------2--------------2--|
|----------------0----2-------------------0--------------2--|
|---------------------0----------------------------------0--|

  D            A               Em7    D        A           Em7
|-2------------0----------------0-----2--------0------------0--|
|-3------------2----------------3-----3--------2------------3--|
|-2------------2----------------0-----2--------2------------0--|
|-0------------2----------------2-----0--------2------------2--|
|--------------0----------------2--------------0------------2--|
|-------------------------------0---------------------------0--|

Verse 3x

2nd Chorus: Guitar 2 (distorted) after billy's lines
|------------------|   |------------------|
|--20~--19~--15~---|   |------------------|
|------------------|   |------------------|
|------------------|   |--16~--15~--11~---|
|------------------|   |------------------|
|------------------|   |------------------|

Riff A
|----------------------------------------------------|
|----------------------------------------------------|
|--12-12-12-12-12-12-11-11-11-11-11-11-7-7-7-7-7-7---|
|--x--x--x--x--x--x--x--x--x--x--x--x--x-x-x-x-x-x---|
|--10-10-10-10-10-10-9--9--9--9--9--9--5-5-5-5-5-5---|
|----------------------------------------------------|

|----------------|
|----------------|
|--15~--15--18~--|
|----------------|  (then riff A again)
|----------------|
|----------------|

Solo: (distorted)
|---------------------------------------------------|
|------------------------------21-------------------|
|---/15~--15/18-18-18-20~-22~-----20-18----20/22~---|
|---------------------------------------20----------|
|---------------------------------------------------|
|---------------------------------------------------|

|-----------------------------------|
|-----------------------------------|
|---22/20-----------18-18/20~\15~---|
|---------18/20~-18-----------------|
|-----------------------------------|
|-----------------------------------|

3rd Chorus: Guitar 2 (distorted) after Billy's lines
|-------------------|            |-------------------------|
|---20~--19~--15~---|  last time |---20~--19~--15~--16~~~--|
|-------------------|  play this |-------------------------|
|-------------------|            |-------------------------|
|-------------------|            |-------------------------|
|-------------------|            |-------------------------|

This is a very cool SP song and this is my first tab
            
Submit corrections



        Stand Inside Your Love lessons Hard to play? Try these video lessons and learn fast Stand Inside Your Love lessons
        
↑ Back to top | Tablatures and chords for acoustic guitar and electric guitar, ukulele, drums are parodies/interpretations of the original songs. You may use it for private study, scholarship, research or language learning purposes only